Song name
# A B C D E F G H I J K L M N O P Q R S T U V W X Y Z

Marduk - Beast Of Prey tab

Band: Marduk

Album: Panzer Division Marduk

Song: Beast Of Prey

Copyright (c) Osmose - 1999

Version 1.0 - 05/09/2007

Transcribed By: inrwtl & FRMC

Email: inrwtl@alice.it


.  - palm mute           /  - slide up to
\  - slide down to       ~  - vibrato
h  - hammer on           b  - Bend
p  - pull off            Suffixes for bend
t  - tap                 f  - full bend    h - half bend
ph - pinched harmonic    q  - quarter bend t - tap bend
*  - see comment         ^  - Hold bend    r release bend
x  - Stuccatto           ~  - vibrato bend
,  - slight palm mute    () - ghost note, sustained note
"  - tremolo note        <> - Trill


Tuning D# G# C# F# A# D# (semitone flat)


Riff 1

|---------------------------------------------------------------------|
|---------------------------------------------------------------------|
|---------------------------------------------------------------------|
|-6-6-6-6-7-7-5-5-6-6-6-6-7-7-5-5-6-6-6-6-7-7-5-5-6-6-6-6-7-7-5-5-----|
|-6-6-6-6-7-7-5-5-6-6-6-6-7-7-5-5-6-6-6-6-7-7-5-5-6-6-6-6-7-7-5-5-----|
|-4-4-4-4-5-5-3-3-4-4-4-4-5-5-3-3-4-4-4-4-5-5-3-3-4-4-4-4-5-5-3-3-----|


Riff 2

|---------------------------------------------------------------------|
|---------------------------------------------------------------------|
|---------------------------------------------------------------------|
|---------------------------------------------------------------------|
|-9-9-9-7-9-9-9-7-9-9-9-7-10-10-10-7-9-9-9-7-9-9-9-7-9-9-9-7-10-10-10-|
|-7-7-7-5-7-7-7-5-7-7-7-5-8--8--8--5-7-7-7-5-7-7-7-5-7-7-7-5-8--8--8--|


Riff 3

|---------------------------------------------------------------------|
|---------------------------------------------------------------------|
|---------------------------------------------------------------------|
|---------11-11-10-10-10-10---------------------11-11-10-10-10-10-----|
|-9-9-9-9-9--9--8--8--8--8--12-12-11-11-9-9-9-9-9--9--8--8--8--8------|
|-7-7-7-7-------------------10-10-9--9--7-7-7-7-----------------------|


Riff 4a

|---------------------------------------------------------------------|
|---------------------------------------------------------------------|
|---------------------------------------------------------------------|
|-7-7-8-8-7-7-5-5-/10-10-9-9-7-7-6-6-4-4------------------------------|
|-0-0-0-0-0-0-0-0-/8--8--7-7-5-5-4-4-2-2------------------------------|
|---------------------------------------------------------------------|


Riff 4b

|---------------------------------------------------------------------|
|---------------------------------------------------------------------|
|-----------------5-5-4-5-5-7-7-7-7-----------------------------------|
|-7-7-8-8-7-7-5-5-7-7-6-7-7-9-9-9-9-----------------------------------|
|-0-0-0-0-0-0-0-0-----------------------------------------------------|
|---------------------------------------------------------------------|


Riff 5

|---------------------------------------------------------------------|
|---------------------------------------------------------------------|
|---------------------------------------------------------------------|
|------11---10-------------------11---10------------------------------|
|-9----9----8----12----11---9----9----8-------------------------------|
|-7----9----8----10----9----7----9----8-------------------------------|


Riff 6

|---------------------------------------------------------------------|
|---------------------------------------------------------------------|
|-7-7-7-7-5-5-7-7-8--8--10-10-7-7-7-7-5-5-7-7-8--8--5-5---------------|
|-9-9-9-9-7-7-9-9-10-10-12-12-9-9-9-9-7-7-9-9-10-10-7-7---------------|
|---------------------------------------------------------------------|
|---------------------------------------------------------------------|


END
Tap to rate this tab
# A B C D E F G H I J K L M N O P Q R S T U V W X Y Z