Song name
# A B C D E F G H I J K L M N O P Q R S T U V W X Y Z

Marduk - Dark Endless tab

Marduk : Dark Endless

Tunung: C

Intro
:-----------------------------------------------|
:-----------------------------------------------|
:-----------------------------------------------|
:-----------------------------------9-9-9-10-10-|
:----10-9------9-10-9-5------10-9---0-0-0-0--0--|
:-0---------0-------------0---------------------|

A1
:-----------------------------------------|
:-----------------------------------------|
:------------------------------4-4-4-5-5--|
:------------------7-----------2-2-2-3-3--|
:-2-5-4-4--2-4-5-4-5--2-5-4-4--0-0-0-0-0--|
:-0-3-2-2--0-2-3-2----0-3-2-2-------------|

A2
:-----------------------------------------|
:-----------------------------------------|
:-----------------------------------------|
:-----3-2---------------------3-2---------|
:---------3--2-3------------------3-2-3-5-|
:-0-0------------3-2------0-0-------------|

A3
:--------------------------------------|
:--------------------------------------|
:--------------------------------------|
:-3333-2------------3333-2-5-444444444-|
:-------3-22222222---------------------|
:--------------------------------------|

A4
:-------------------------|
:-------------------------|
:-5--4--------5--4-7-6----|
:-3--2-5-4----3--2-5-4----|
:------3-2----------------|
:-------------------------|

A5
:-------------------------------|
:-------------------------------|
:-------------------------------|
:-5-88..-5-88..-4-77..-3-66..---|
:-------------------------------|
:-------------------------------|

A6
:-------------------|
:-------------------|
:-------------------|
:-------------------|
:-----7777-----8888-|
:-0-0------0-0------|

A7                               End
:-------------------------------:---------------|
:-------------------------------:---------------|
:-------------------------------:---------------|
:-------------------------------:---------------|
:-2--2-22-4/5--4/5--2--2-22-4/5-:-----4/5--2----|
:-0--0-00-2/3--2/3--0--0-00-2/3-:-end-2/3--0----|
               * *                    * *

Intro
A1-A2-A3-A4-A3-A5-A3-A4-A6-A7-End
Tap to rate this tab
 
# A B C D E F G H I J K L M N O P Q R S T U V W X Y Z