Song name
# A B C D E F G H I J K L M N O P Q R S T U V W X Y Z

Marduk - Opus Noctune tab

                    OPUS NOCTUNE
                       MARDUK

riff 1 (a)
e----------------------------------------------||
B----------------------------------------------||
G---------/\------------/\------/\--/||\-------||
D----7-9-9-10---7-9-9-10-9-9-5-5-7-5-7-5-------||
A--7----------7--------------------------7-----||
E----------------------------------------------||
repeat this 5 times...

riff 1 (b)
e-----------------------------------------------||
B-----------------------------------------------||
G---------/\---10-10------------/\--/||\--------||
D----7-9-9-10-------7-10-9-9-5-5-7-5-7-5--------||
A--7-------------------------------------7------||
E-----------------------------------------------||
then this figure once...

riff 2
e--5/7/8\7--||
B-----------||
G-----------||
D-----------||
A-----------||
E-----------||
this figure is played in low volume under the voice...

after finishing this part (listen the song) you play the intro part of the
first riff (a).
Tap to rate this tab
 
# A B C D E F G H I J K L M N O P Q R S T U V W X Y Z