Guitaretab - guitar tabs
Song name
# A B C D E F G H I J K L M N O P Q R S T U V W X Y Z

Marduk - Sulphur Souls tab

 "Sulphur souls" from the album "opus nocturne" by Marduk

Tabbed by Marcus Lillerskog

1:st riff (play about 6 times)
(fast riff)
E|---------------------------------------------------
H|---------------------------------------------------
G|---------------------------------------------------
D|--7777-8888-7777-10101010--77-88-1010-88-77-1212---
A|--0000000000000000000000000000000000000000000000---
E|---------------------------------------------------


riff 2 (play about 6-8 times)
(fast riff)
E|---------------------
H|---------------------
G|---------------------
D|--7-10-9-6--7-10-9-6-
A|--000000000000000000-
E|---------------------


riff 3 (play a couple of times)
(slow riff)
E|--------------
H|--------------
G|--------------
D|--7-7-7-7-7-7-
A|--0-5-8-0-5-8-
E|--------------


riff 4 (play a lot of times)
(Really fast riff)
E|-----------------------
H|-----------------------
G|-----------------------
D|--7777-7777-5555-2222--
A|--0000-7777-3333-0000--
E|-----------------------


riff 5 (play 4 times)
(fast riff)
E|--------------------
H|--------------------
G|--------------------
D|--10-9-7-5-10-9-7-5-
A|---7-7-7-7-7-7-7-7--
E|--------------------
[ Tab from: http://www.guitaretab.com/m/marduk/40930.html ]
continueation of riff 5 (play two times)
E|---------------------------------------------
H|---------------------------------------------
G|---------------------------------------------
D|--10-9-7-10-9-7--8-7-5-8-7-5--12-11-9-12-11-9
A|--7-7-7-7-7-7----5-5-5-5-5-5--9-9-9-9-9-9-
E|---------------------------------------------

After that you play:
riff 1 seven times
riff 2 six times


continueation of riff 5 (play two times on band 10, then slip down to 8 and after that up to 12) 
E|---------------------------------------------|
H|---------------------------------------------|
G|---------------------------------------------|  Guitar 1
D|--10-9-7-10-9-7--8-7-5-8-7-5--12-11-9-12-11-9|
A|--7-7-7-7-7-7----5-5-5-5-5-5--9-9-9-9-9-9-   | 
E|---------------------------------------------|
  

E|------------------------------------------------------------------------------------------------|      
H|----------------------8-6-------------------------6-4------------------------------10-8---------|
G|--10-9-7-7-9-10-7-9-10---9-10-7--8-7-5-5-7-8-5-7-8---7-8-5--12-11-9-9-11-12-9-11-12----11-12-9--| guitar 2
D|------------------------------------------------------------------------------------------------|
A|------------------------------------------------------------------------------------------------|
E|------------------------------------------------------------------------------------------------|

play riff 2 another 4 more times and after that you end with playing riff 3 six times

ENJOY!!!!
Related for Sulphur Souls tab
×
Best way to learn
"Sulphur Souls"