Song name
# A B C D E F G H I J K L M N O P Q R S T U V W X Y Z

Marduk - Those Of The Unlight tab

Marduk - Those of the Unlight (from s/t album)

Tuning: D Standard (DGCFAD)

Legend:

h=hammer on
p=pull off
t=trill
/=slide up
\=slide down
"=tremolo picking
.=palm mute


Riff A1 (Play 1x):
  Left Guitar
D|---------------------|---------------------|---------------------|---------------------|
A|---------------------|---------------------|---------------------|---------------------|
F|------7"---8"--------|---------------------|------7"---8"--------|---------------------|
C|-5"-------------6"---|-7"---9"---10"--9"---|-5"-------------6"---|-5"------------------|
G|---------------------|---------------------|---------------------|------8"---7"--------|
D|---------------------|---------------------|---------------------|----------------8"---|
 |Right Guitar
D|---------------------|---------------------|---------------------|---------------------|
A|---------------------|---------------------|---------------------|---------------------|
F|-7-------------------|---------------------|-7-------------------|-----------9\--------|
C|-5-------------------|---------------------|-5-------------------|---------------------|
G|---------------------|---------------------|---------------------|---------------------|
D|---------------------|---------------------|---------------------|---------------------|

Riff A2 (Play 4x):
  Both Guitars
D|---------------------|---------------------|---------------------|---------------------|
A|---------------------|---------------------|---------------------|---------------------|
F|------7"---8"--------|---------------------|------7"---8"--------|---------------------|
C|-5"-------------6"---|-7"---9"---10"--9"---|-5"-------------6"---|-5"------------------|
G|---------------------|---------------------|---------------------|------8"---7"--------|
D|---------------------|---------------------|---------------------|----------------8"---|

Riff B1 (Play 2x):
  Left Guitar
D|-------------------------|---------------------|
A|-------------------------|---------------------|
F|----9-----9-----9-----9--|-----------7"--------|
C|-7-----7-----7-----7-----|-7"---10"-------9"---|
G|-------------------------|---------------------|
D|-------------------------|---------------------|
 |Right Guitar
D|-------------------------|---------------------|
A|-------------------------|---------------------|
F|-------------------------|-----------7---------|
C|-7-----------------------|-7----10--------9----|
G|-7-----------------------|---------------------|
D|-5-----------------------|---------------------|

Riff B2 (Play 1x):
  Left Guitar
D|-------------------------|---------------------|
A|-------------------------|---------------------|
F|----9-----9-----9-----9--|-----------7"--------|
C|-7-----7-----7-----7-----|-7"---10"-------9"---|
G|-------------------------|---------------------|
D|-------------------------|---------------------|
 |Right Guitar
D|-------------------------|---------------------|
A|-------------------------|---------------------|
F|-------------9t10--------|-----------7"--------|
C|-7--7--7--7--------------|-7"---10"-------9"---|
G|-------------------------|---------------------|
D|-------------------------|---------------------|
PM .  .  .  .

Riff B3 (Play 5x):
  Both Guitars
D|-------------------------|---------------------|
A|-------------------------|---------------------|
F|----9-----9-----9-----9--|-----------7"--------|
C|-7-----7-----7-----7-----|-7"---10"-------9"---|
G|-------------------------|---------------------|
D|-------------------------|---------------------|

Bass Solo:
F|---------------------|---------------------|----------------------|----------------------|
C|---------------------|---------------------|------------7---------|------------7---------|
G|-5----8----7----8----|-5----8----7----8----|------7-h8-------7----|------7-h8-------7----|
D|---------------------|---------------------|-8--------------------|-8--------------------|

Riff C1 (Play 3x):
  Both Guitars
D|---------------------|---------------------|----------------------|----------------------|
A|---------------------|---------------------|----------------------|----------------------|
F|---------------------|---------------------|----------------------|----------------------|
C|---------------------|---------------------|------------7"--------|------------7"--------|
G|-5"---8"---7"---8"---|-5"---8"---7"---8"---|------7"-8"------7"---|------7"-8"------7"---|
D|---------------------|---------------------|-8"-------------------|-8"-------------------|

Fill (Play 1x):
  Both Guitars
D|------------------|--------------------|
A|------------------|--------------------|
F|------------------|--------------------|
C|-9----------------|-9--------9----9----|
G|-7----------------|-7--------7----7----|
D|-7----------------|-7--------7----7----|

Riff D1 (Play 4x):
  Both Guitars
D|-------------------|-------------------|
A|-------------------|-------------------|
F|-------------------|-------------------|
C|-7"-------9"-------|-10"------9"-------|
G|-------------------|-------------------|
D|-------------------|-------------------|

Riff E1 (Play 4x):
D|-----------------------|-----------------------|
A|-----------------------|-----------------------|
F|-----------------------|-----------------------|
C|-7----------10---------|-8----------10---------|
G|-7----7--7--10---10-10-|-8----8--8--10---10-10-|
D|-5----5--5--8----8--8--|-6----6--6--8----8--8--|

Play Riff D1 4x

Play Riff E1 4x

Riff A3 (Play 1x):
  Left Guitar
D|---------------------|---------------------|---------------------|---------------------|
A|---------------------|---------------------|---------------------|---------------------|
F|------7"---8"--------|---------------------|------7"---8"--------|---------------------|
C|-5"-------------6"---|-7"---9"---10"--9"---|-5"-------------6"---|-5"------------------|
G|---------------------|---------------------|---------------------|------8"---7"--------|
D|---------------------|---------------------|---------------------|----------------8"---|
 |Right Guitar
D|---------------------|---------------------|---------------------|---------------------|
A|---------------------|---------------------|---------------------|---------------------|
F|---------------------|---------------------|---------------------|---------------------|
C|---------------------|---------------------|---------------------|-5-------------------|
G|---------------------|---------------------|---------------------|------8----7---------|
D|---------------------|---------------------|---------------------|----------------8----|

Play Riff A2 3x

Play Riff B1 2x

Play Riff B2 1x

Play Riff B3 5x

Fill (Play 2x):
  Both Guitars
D|------------------|------------------|
A|------------------|------------------|
F|------------------|------------------|
C|-2----------------|------------------|
G|-2----------------|------------------|
D|-0----------------|------------------|
(Last time, Left Guitar adds a pick scrape at the end)

Riff F1 (Play 11x):
  Left Guitar
D|---------------------|---------------------|---------------------|---------------------|
A|---------------------|---------------------|---------------------|---------------------|
F|---------------------|---------------------|---------------------|----------------7----|
C|---------------------|----------------3----|-4-------------------|-5-------------------|
G|-2--------------5----|-6--------------1----|-2-------------------|-2-------------------|
D|-0--------------3----|-4-------------------|---------------------|---------------------|
 |Right Guitar
D|---------------------|---------------------|---------------------|---------------------|
A|---------------------|---------------------|---------------------|---------------------|
F|---------------------|---------------------|---------------------|---------------------|
C|-2---------4----5----|-6---------8----9----|-9---------11---12---|-9---------11---12---|
G|------2--------------|------6--------------|------9--------------|------9--------------|
D|---------------------|---------------------|---------------------|---------------------|

Fill (Play 16x)
  Left Guitar
D|------------------|
A|------------------|
F|------------------|
C|-0"---------------|
G|------------------|
D|------------------|
 |Right Guitar
D|------------------|
A|------------------|
F|------------------|
C|------------------|
G|------------------|
D|------------------|

Riff G1 (Play 1x):
  Left Guitar
D|-------------------|--------------------|
A|-------------------|--------------------|
F|----------7"-------|-8"-----------------|
C|-0"----------------|----------7"---8"---|
G|-------------------|--------------------|
D|-------------------|--------------------|
 |Right Guitar
D|-------------------|--------------------|
A|-------------------|--------------------|
F|-------------------|--------------------|
C|-------------------|--------------------|
G|-------------------|--------------------|
D|-------------------|--------------------|

Riff G2 (Play 1x):
  Left Guitar
D|-------------------|--------------------|-------------------|--------------------|
A|-------------------|--------------------|-------------------|--------------------|
F|----------7"-------|-8"-----------------|----------7"-------|-8"-----------------|
C|-0"----------------|----------7"---8"---|-0"----------------|----------7"---8"---|
G|-------------------|--------------------|-------------------|--------------------|
D|-------------------|--------------------|-------------------|--------------------|
 |Right Guitar
D|-------------------|--------------------|-------------------|--------------------|
A|-------------------|--------------------|-------------------|--------------------|
F|-------------------|--------------------|-------------------|--------------------|
C|-7-----------------|--------------------|-7--7--------------|--------------------|
G|-5-----------------|--------------------|-5--5--------------|--------------------|
D|-------------------|--------------------|-------------------|--------------------|

Riff G3 (Play 2x):
  Left Guitar
D|-------------------|--------------------|
A|-------------------|--------------------|
F|----------7"-------|-8"-----------------|
C|-0"----------------|----------7"---8"---|
G|-------------------|--------------------|
D|-------------------|--------------------|
 |Right Guitar
D|-------------------|--------------------|
A|-------------------|--------------------|
F|-------------------|--------------------|
C|-7-----------------|--------------------|
G|-5-----------------|--------------------|
D|-------------------|--------------------|

Riff G4 (Play 6x):
  Left Guitar
D|--------------------|--------------------|
A|--------------------|--------------------|
F|----------7"--------|-8"-----------------|
C|-0"-----------------|----------7"---8"---|
G|--------------------|--------------------|
D|--------------------|--------------------|
 |Right Guitar
D|--------------------|--------------------|
A|--------------------|--------------------|
F|--------------------|--------------------|
C|----------7"--------|-8"------------8"---|
G|-5"------------5"---|----------6"--------|
D|--------------------|--------------------|

Fill (Play 1x):
  Both Guitars
D|------------------|
A|------------------|
F|------------------|
C|------------------|
G|-5----------------|
D|-5----------------|

The End
Tap to rate this tab
 
# A B C D E F G H I J K L M N O P Q R S T U V W X Y Z