Song name
# A B C D E F G H I J K L M N O P Q R S T U V W X Y Z

Marduk - Fistfucking Gods Planet tab

fistfucking god's planet
from the album PANZER DIVISION MARDUK

tab by
Alexander Schiebl (otto.schiebl@chello.at)
Karl Westin (max_c84@hotmail.com)


this song is a fucking killer....! it's typical for marduk
that their songs are fucking fast, this one is no exception.
play ALL riffs as fast you can. the spaces are only here
to make it easier to read. so make sure that your right hand
is warmed up before you play this song....

faster than hell



RIFF 1
E||-------------------------------
B||-------------------------------
G||--3-4-3-7-3-4------3-4-3-8-3-4-
D||--3-4-3-7-3-4------3-4-3-8-3-4-
A||--1-2-1-5-1-2------1-2-1-6-1-2-
E||-------------------------------

RIFF 2
E||----------------------------------------
B||----------------------------------------
G||--8-6-8-9-11-9-8-6----8-6-8-9-11-9-8----
D||--8-6-8-9-11-9-8-6----8-6-8-9-11-9-8----
A||--6-4-6-7-9--7-6-4----6-4-6-7-9--7-6----
E||----------------------------------------

-------------------------------
-------------------------------
-8-6-8-9-11-9-8-6-8-9-8-6-5-5--
-6-4-6-7-9--7-6-4-6-7-6-4-3-3--
-6-4-6-7-9--7-6-4-6-7-6-4-3-3--
-------------------------------

RIFF 3
with other distortion
the things on the 6th string is played by bass
E||----------------------------------------------
B||----------------------------------------------
G||----------------------------------------------
D||----------8----------8-7----------8-7-5-4-5-8-
A||----------6----------6-5----------6-5-3-2-3-6-
E||--0---056----0---056------0---056-------------

RIFF 4
E||---------------------------------------------------
B||---------------------------------------------------
G||---------------------------------------------------
D||-------------------------------------111434-222454-
A||--------------------111434-222454------------------
E||-111434-222454-------------------------------------
          4x                 4x               2x

RIFF 5
E||--------------------------------------
B||--------------------------------------
G||--88--9\8--88--11\10---88--11\8--77-55-
D||--88--9\8--88--11\10---88--11\8--77-55-
A||--66--7\6--66--9-\8----66--9-\6--55-33-
E||--------------------------------------
Tap to rate this tab
# A B C D E F G H I J K L M N O P Q R S T U V W X Y Z