Song name
# A B C D E F G H I J K L M N O P Q R S T U V W X Y Z

Marduk - La Grande Danse Macabre tab

La Grande Danse Macabre by Marduk

Tuning: C I think
Find out the riff order yourself. 

Riff 1
-|------------------------------------------------------------------------| 
-|------------------------------------------------------------------------| 
-|------------------------------------------------------------------------| 
-|----------7-7-5-5-4-4---------------------------------------------------| 
-|--2-2-2-2-5-5-3-3-2-2---------------------------------------------------| 
-|--0-0-0-0---------------------------------------------------------------| 
     



Riff 2 (Vers)
-|------------------------------------------------------------------------| 
-|------------------------------------------------------------------------| 
-|------------------------------------------------------------------------| 
-|------7--7-7-------5--5-5-----7--7-7--5-4-3-----------------------------| 
-|--2-2-5--5-5---2-2-3--3-3-2-2-5--5-5--3-2-1-----------------------------| 
-|--0-0----------0-0--------0-0-------------------------------------------| 



Riff 3
-|------------------------------------------------------------------------| 
-|------------------------------------------------------------------------| 
-|------------------------------------------------------------------------| 
-|--5-8-7-8-7-8-11-8-7---5-8-7-8-7-8-11-8-7-5-7-8-------------------------| 
-|------------------------------------------------------------------------| 
-|------------------------------------------------------------------------|



Riff 4 (Chorus)
-|------------------------------------------------------------------------| 
-|------------------------------------------------------------------------| 
-|------------------------------------------------------------------------| 
-|--5--5-8-7-8-7-8-11-8-7-------------------------------------------------| 
-|------------------------------------------------------------------------| 
-|------------------------------------------------------------------------|
Tap to rate this tab
# A B C D E F G H I J K L M N O P Q R S T U V W X Y Z