Song name
# A B C D E F G H I J K L M N O P Q R S T U V W X Y Z

Marduk - Seven Angels Seven Trumpets tab

Help us improve GuitareTab! Take a short survey!
Band:  Marduk
Album: Plague Angel
Song:  Seven Angels, Seven Trumpets

Copyright (c)  Blooddawn/Regain Records 2004
Version 1.0 - June 2007

Transcribed By: RedScorpion
Email:          beardedwanker@hotmail.com


.  - palm mute           /  - slide up to
\  - slide down to       ~  - vibrato
h  - hammer on           b  - Bend
p  - pull off            Suffixes for bend
t  - tap                 f  - full bend    h - half bend
ph - pinched harmonic    q  - quarter bend t - tap bend
*  - see comment         ^  - Hold bend    r release bend
x  - Stuccatto           ~  - vibrato bend
,  - slight palm mute    () - ghost note, sustained note
"  - tremolo note        <> - Trill



7-stringed guitar

Tuning B E A D G B E


Riff A

|-------------------------------------------|
|-------------------------------------------|
|o-----------------------------------------o|
|o-----------------------------------------o|
|---4--4-4-4--7--7-7-7--3--3-3-3--7---(7)---|
|---4--4-4-4--7--7-7-7--3--3-3-3--7---(7)---|
|---2--2-2-2--5--5-5-5--1--1-1-1--5---(5)---|


Riff B

|------------------------------|
|------------------------------|
|o----------------------------o|
|o--9-9-9-9-9-9-9-9-9-9-9-9"--o|
|---7-7-7-7-7-7-7-7-7-7-7-7"---|
|---0-0-0-0-0-0-0-0-0-0-0-0"---|
|------------------------------|


Riff A repeat

break

Riff A repeat

Riff B repeat

etc
Related for Seven Angels Seven Trumpets tab