Song name
# A B C D E F G H I J K L M N O P Q R S T U V W X Y Z

Marduk - Accuseropposer tab

Band:  Marduk
Album: Rom 5.12
Song:  Accuser/Opposer

Copyright (c)  Regain Records/Blooddawn 2007
Version 1.0 - April 2007

Transcribed By: RedScorpion
Email:          beardedwanker@hotmail.com


.  - palm mute           /  - slide up to
\  - slide down to       ~  - vibrato
h  - hammer on           b  - Bend
p  - pull off            Suffixes for bend
t  - tap                 f  - full bend    h - half bend
ph - pinched harmonic    q  - quarter bend t - tap bend
*  - see comment         ^  - Hold bend    r release bend
x  - Stuccatto           ~  - vibrato bend
,  - slight palm mute    () - ghost note, sustained note
"  - tremolo note        <> - Trill

Tuning E A D G B E


Riff A

|------------------------------------------------------|
|------------------------------------------------------|
|o---------------------------------------5-7-9-10-9---o|
|o--7/9-9-10-9--7/9-9-12-10--7/9-9-10-9---------------o|
|---5/7-7-7--7--5/7-7-10-7---5/7-7-7--7--3-5-7-8--7----|
|------------------------------------------------------|

Riff B

|------------------------------------------------------------|
|------------------------------------------------------------|
|o----------------------------------------------------------o|
|o----------------------------------------------------------o|
|---8\7--7--7--7-7-8-8\7--7--7-7-8-8\7-10-10\8-8-8\7-7-7-7---|
|---6\5--5--5--5-5-6-6\5--5--5-5-6-6\5-8--8\-6-6-6\5-5-5-5---|


Riff C

|------------------------------------------------|
|------------------------------------------------|
|o----------------------------------------------o|
|o----------------------------------------------o|
|---10-10-7--7/8-8\7-7-7--10-10-7--7/8-8\7-7-7---|
|---8--8--5--5/6-6\5-5-5--8--8--5--5/6-6\5-5-5---|
|                                                |
|                                                |
|------------------------------------------------|
|------------------------------------------------|
|o--17-17-14----(14)------17-17-----------------o|
|o------------------------------14----(14)------o|
|---15-15-12----(12)------15-15------------------|
|-------------------------------12----(12)-------|


Riff D

|--------------------------------------------------|
|--------------------------------------------------|
|o------------------------------------------------o|
|o------------------------------------------------o|
|---7--7-7--7/9-10-10-10-10-9-7--7-7--7-8-7--7-7---|
|---5--5-5--5/7-8--8--8--8--7-5--5-5--5-6-5--5-5---|


Riff B repeat

Riff E (Riff appears at 03:42 and 05:10, once only each time)

|---------------------------------------------------------------------|
|---------------------------------------------------------------------|
|-10\9--9--9--9-9-10-10\9--9--9-9-10-10\9-9-12-12\10-10-10-10\9--9--9-|
|-10\9--9--9--9-9-10-10\9--9--9-9-10-10\9-9-12-12\10-10-10-10\9--9--9-|
|-8-\7--7--7--7-7-8--8-\7--7--7-7-8--8--7-7-10-10\8--8--8--8-\7--7--7-|
|---------------------------------------------------------------------|

Riff B repeat

Riff C repeat

Riff A repeat

Riff B repeat

Riff E

Riff B repeat

Riff C repeat

Riff F (fade)

|------------------------------------------------|
|------------------------------------------------|
|o----------------------------------------------o|
|o----------------------------------------------o|
|---10-10-7--7/8-8\7-7-7--10-10-7--7/8-8\7-7-7---|
|---8--8--5--5/6-6\5-5-5--8--8--5--5/6-6\5-5-5---|

THE END
Tap to rate this tab
 
# A B C D E F G H I J K L M N O P Q R S T U V W X Y Z