Song name
# A B C D E F G H I J K L M N O P Q R S T U V W X Y Z

Marduk - Vanity Of Vanities tab

Band:  Marduk
Album: ROM 5:12
Song:  Vanity of Vanities

Copyright (c)  Blooddawn 2007

Transcribed By: Wolfsherz/Jens Cautereels
Email:          cautereels.jens@gmail.com

Tuning: EADGBe

e ---------------------------------------------------------------|
B ---------------------------------------------------------------|
G ---------------------------------------------------------------|
D 6666666622222222-----------------------------------------------|
A 6666666622222222-----------------------------------------------|
E 4444444400000000-----------------------------------------------| x4

e ---------------------------------------------------------------|
B ---------------------------------------------------------------|
G ---------------------------------------------------------------|
D ---------------------------------------------------------------|
A ---------------------22----------------------------------------|
E -2222-00-22-33-22-00-----2222-00-22-33-22-0000-----------------| x2

e ---------------------------------------------------------------|
B ---------------------------------------------------------------|
G ---------------------------------------------------------------|
D ------------------44-------------------------------------------|
A -4444-22-44-55-44-22-----4444-22-44-55-44-2222-----------------|
E -2222-00-22-33-22--------2222-00-22-33-22-0000-----------------| x2

e ---------------------------------------------------------------|
B ---------------------------------------------------------------|
G ---------------------------------------------------------------|
D 6666666622222222-----------------------------------------------|
A 6666666622222222-----------------------------------------------|
E 4444444400000000-----------------------------------------------| x4

e ---------------------------------------------------------------|
B ---------------------------------------------------------------|
G ---------------------------------------------------------------|
D ---------------------------------------------------------------|
A ---------------------22----------------------------------------|
E -2222-00-22-33-22-00-----2222-00-22-33-22-0000-----------------| x2

e ---------------------------------------------------------------|
B ---------------------------------------------------------------|
G ---------------------------------------------------------------|
D ------------------44-------------------------------------------|
A -4444-22-44-55-44-22-----4444-22-44-55-44-2222-----------------|
E -2222-00-22-33-22--------2222-00-22-33-22-0000-----------------| x2

e ---------------------------------------------------------------|
B ---------------------------------------------------------------|
G ---------------------------------------------------------------|
D -2--------------------------------2----------------------------|
A -2--------------------------------2----------------------------|
E -0-000000011111111444444441111111-0----------------------------|

e ---------------------------------------------------------------|
B ---------------------------------------------------------------|
G ---------------------------------------------------------------|
D -997777----------101099---997777-------------------------------|
A -------1111881111---------------1111881111---------------------|
E ------------------------0-----------------0--------------------| x4

e ---------------------------------------------------------------|
B ---------------------------------------------------------------|
G ------------------------------88888888-5555--------------------|
D -999988888888333388888888-666688888888-555533333333------------|
A -999988888888333388888888-666666666666-333333333333------------|
E -777766666666111166666666-4444-------------11111111------------| x2

e ---------------------------------------------------------------|
B ---------------------------------------------------------------|
G ---------------------------------------------------------------|
D ---------------------------------------------------------------|
A ---------------------22----------------------------------------|
E -2222-00-22-33-22-00-----2222-00-22-33-22-0000-----------------| x2

e ---------------------------------------------------------------|
B ---------------------------------------------------------------|
G ---------------------------------------------------------------|
D ------------------44-------------------------------------------|
A -4444-22-44-55-44-22-----4444-22-44-55-44-2222-----------------|
E -2222-00-22-33-22--------2222-00-22-33-22-0000-----------------| x2

e ---------------------------------------------------------------|
B ---------------------------------------------------------------|
G ---------------------------------------------------------------|
D -6666666622222222----------------------------------------------|
A -6666666622222222----------------------------------------------|
E -4444444400000000----------------------------------------------| x4

e ---------------------------------------------------------------|
B ---------------------------------------------------------------|
G ------------------------------88888888-5555--------------------|
D -999988888888333388888888-666688888888-555533333333------------|
A -999988888888333388888888-666666666666-333333333333------------|
E -777766666666111166666666-4444-------------11111111------------| x2

e ---------------------------------------------------------------|
B ---------------------------------------------------------------|
G ---------------------------------------------------------------|
D -6666666622222222----------------------------------------------|
A -6666666622222222----------------------------------------------|
E -4444444400000000----------------------------------------------| x3

e ---------------------------------------------------------------|
B ---------------------------------------------------------------|
G ---------------------------------------------------------------|
D -66666666-2-2-22-2-22-5/16/5-----------------------------------|
A -66666666-2-2-22-2-22-5/16/5-----------------------------------|
E -44444444-0-0-00-0-00-5/16/5-----------------------------------|

e ---------------------------------------------------------------|
B ---------------------------------------------------------------|
G --------9--------9-1010-7--------9--------10-777---------------|
D --------9--------9-1010-7--------9--------10-777---------------|
A --------7--------7-8-8--5--------7--------8--555---------------|
E -000-000--000-000---------000-000--000-000---------------------| x12

e ---------------------------------------------------------------|
B ---------------------------------------------------------------|
G ---------------------------------------------------------------|
D --------9---------9-1010-7------9--------10-777----------------|
A --------7---------7-8-8--5------7--------8--555----------------|
E -000-0007--000-0007-8-8--5---0007-000-0008--555----------------| x4

e ---------------------------------------------------------------|
B ---------------------------------------------------------------|
G --------9--------9-1010-7--------9--------10-777---------------|
D --------9--------9-1010-7--------9--------10-777---------------|
A --------7--------7-8-8--5--------7--------8--555---------------|
E -000-000--000-000---------000-000--000-000---------------------|
Till end
Tap to rate this tab
 
# A B C D E F G H I J K L M N O P Q R S T U V W X Y Z