Song name
# A B C D E F G H I J K L M N O P Q R S T U V W X Y Z

Margot And The Nuclear So And Sos - Theres Talk Of Mineshafts tab

Help us improve GuitareTab! Take a short survey!
-----------------------------------------------------------------
There’s Talk of Mineshafts – Margot and the Nuclear So & So’s
-----------------------------------------------------------------
Tabbed by:Mike Birkey
Email:mike.birkey@gmail.com
Tuning:standard

E|-----------------------------0---------------|
B|-0—2s5--0--2—--0h2-----2--0--0—0-0h2---------|
G|-------------2------2--------1---------------|  Verse X3
D|-----------------------------2---------------|
A|-----------0-----------------2---------------|
E|-----------------------------0---------------|

E|-------------------------------------------|
B|--0-------------5-------------4--4---------|
G|----1---------6---6---------4----4---------|  Cont. Verse X1
D|------2-----7-------7-----4------4---------|
A|----------7-----------7-2--------2---------|
E|--------5----------------------------------|

E|------------------2--------------------0------------|
B|--2----2----2-------2------2-----------0------------|
G|---------2------------2------let ring--1------------|
D|-----2---------4--------4--------------2------------|  Outro
A|--0------------------------0-----------2------------|
E|------------2--------------------------0------------|

Structure

Verse
Cont. Verse
Verse
Cont. Verse
Verse
Cont. Verse
Verse
Cont. Verse
Outro

Tablature Notation

h - hammer on
p - pull off
b - bend string up
r - release bend
/ - slide up
\ - slide down
v - vibrato (or ~)
t - right hand tap
x - play 'note' with heavy muting
Related for Theres Talk Of Mineshafts tab