Song name
# A B C D E F G H I J K L M N O P Q R S T U V W X Y Z

Margot And The Nuclear So And Sos - Things You Shouldnt Do tab

may be different depending on version
this is the demo

tuned half a step down

INTRO/VERSE
e------------------------------------------------0--------------|
b------1--1---1----1--1---1-----1--1---1-----1-------1----------|
g-----------0-0----0----0-0-----2----2-----1---1-------1-0------|  X4
d------2-----------0---------3--3-------------------------------|
a---3--3--------1--1------------3-------------------------------|
E---------------------------------------------------------------|

I don't know where i went, when the bar doors closed
and i don't know what i drank, but i felt quite strange

e---------------------------------------------------------------|
b------1--1---1----1--1---1-----1--1-----------1--1-------------|
g-----------0-0---------0-0-----2----2---------2----1-----------|
d------2------------------------2------2-------2------2---------|
a---3--3--------2--2---------0--0--------0--0--0--------0-------|
e---------------------------------------------------------------|

when i said goodbye

e------1--1--------1--1---------3--3-3-3--------3--3-3-3--------|
b------3----3------3----3---------------------------------1-----|
g------2------2----2------2-------------------------------2-----|
d---0--0--------0--0--------------------------------------3-----|
a-------------------------------2--2-2-2--------2--2-2-2--3-----|
e----------------------------3--3--3-3-3-----3--3--3-3-3--------|

oh god i'm scared that i cant tell you that can i

e------------------------------------------------0--------------|
b------1--1---1----1--1---1-----1--1---1-----1-------1----------|
g-----------0-0----0----0-0-----2----2-----1---1-------1-0------|  X4
d------2-----------0---------3--3-------------------------------|
a---3--3--------1--1------------3-------------------------------|
E---------------------------------------------------------------|

and i was alone for days, when i lived in that place 
and i was a walking corpse, when i saw your face 

e---------------------------------------------------------------|
b------1--1---1----1--1---1-----1--1-----------1--1-------------|
g-----------0-0---------0-0-----2----2---------2----1-----------|
d------2------------------------2------2-------2------2---------|
a---3--3--------2--2---------0--0--------0--0--0--------0-------|
e---------------------------------------------------------------|

you turn me off

e------1--1--------1--1---------3--3-3-3--------3--3-3-3--------|
b------3----3------3----3-----------------------------------1---|
g------2------2----2------2---------------------------------2---|
d---0--0--------0--0----------------------------------------3---|
a-------------------------------2--2-2-2--------2--2-2-2----3---|
e----------------------------3--3--3-3-3-----3--3--3-3-3--------|

mama i'm scared that i already told you that didn't i?

e------------------------------------------------0--------------|
b------1--1---1----1--1---1-----1--1---1-----1-------1----------|
g-----------0-0----0----0-0-----2----2-----1---1-------1-0------|  X2
d------2-----------0---------3--3-------------------------------|
a---3--3--------1--1------------3-------------------------------|
E---------------------------------------------------------------|

e------1--1--------1--1---------3--3-3-3--------3--3-3-3--------|
b------3----3------3----3---------------------------------------|
g------2------2----2------2-------------------------------------|
d---0--0--------0--0--------------------------------------------|
a-------------------------------2--2-2-2--------2--2-2-2--------|
e----------------------------3--3--3-3-3-----3--3--3-3-3--------|

e---------------------------------------------------------------|
b------1--1-1-1--------1--1-1-1------1--1-1-1--------1--1-1-1---|
g---------------------------------------------------------------|
d------2--2-2-2-------------------------------------------------|
a---3--3--3-3-3-----2--2--2-2-2---1--1--1-1-1-----1--1--1-1-1---|
e---------------------------------------------------------------|

and i know you're tired, but there's some things you shouldn't do

e------1--1--------1--1---------3--3-3-3--------3--3-3-3--------|
b------3----3------3----3---------------------------------------|
g------2------2----2------2-------------------------------------|
d---0--0--------0--0--------------------------------------------|
a-------------------------------2--2-2-2--------2--2-2-2--------|
e----------------------------3--3--3-3-3-----3--3--3-3-3--------|

e---------------------------------------------------------------|
b------1--1-1-1-1------1-1-1-1------3--3--2-----3-3s5--2--------|
g-----------------------------------2---2----------------2------|
d------2--2-2-2-2---------------------------2-------------------|
a---3--3--3-3-3-3---1--1-1-1-1---0--0---------0-----------------|
e---------------------------------------------------------------|

like giving the time to people who don't care for you

e------1--1-1-1--------1--1-1-1-------3--3-3-3--------3---------|
b------3--3-3-3--------3--3-3-3----------------------------1----|
g------2--2-2-2--------2--2-2-2---------------------------------|
d---0--0--0-0-0-----0--0--0-0-0----------------------------2----|
a-------------------------------------2--2-2-2--------2----3----|
e----------------------------------3--3--3-3-3-----3--3---------|
 

Tap to rate this tab
# A B C D E F G H I J K L M N O P Q R S T U V W X Y Z