Song name
# A B C D E F G H I J K L M N O P Q R S T U V W X Y Z

Margot And The Nuclear So And Sos - Love Song For A Schubas Bartender tab

This is my first tab, and honestly, will probably be my only one.


I tabbed this off of the Daytrotter Session version of the song. 
The song maintains a steady beat on the A (and eventually the D) string. 
The rhythm is a bit tricky, but it pretty much stays the same throughout the song. 
I did my best to line the notes up with the actual timing of 
the song. The upper notes are mostly on the off-beats. Some of the notes 
vary throughout the song, just listen for the changes. The song just
repeats the C-G-F progression.

Enjoy, and let me know what you think.

    C
E|--0-----------------------------------|
B|------3--1-----1h3-1------------------| 
G|-------------------------0------------| 
D|--------------------------------------|
A|--3--3--3--3--3--3--3--3--3--3--3--2--| 
E|--------------------------------------| 



    G
E|--3------3----0--0h3------------------|
B|------0---------------0---------------| 
G|--------------------------------------| 
D|--------------------------------------|
A|--2--2--2--2--2--2--2--2--2--2--2--0--| 
E|--------------------------------------|



    F
E|-----------0-----------------0--------|
B|--1-------------0---0h1-----------0---| 
G|-------2-----------------2------------| 
D|--3--3--3--3--3--3--3--3--3--3--3--3--|
A|--------------------------------------| 
E|--------------------------------------| 
Tap to rate this tab
# A B C D E F G H I J K L M N O P Q R S T U V W X Y Z