Song name
# A B C D E F G H I J K L M N O P Q R S T U V W X Y Z

Margot And The Nuclear So And Sos - Mariels Brazen Overture tab

-------------------------------------------------------------------------------
	    MARIEL'S BRAZEN OVERTURE - Margot & the Nuclear So and So's
-------------------------------------------------------------------------------
by Austin Morgan

Tuning: Standard (EADGBe)

The other tab was decent, but it was not even close to the real song.  I am 99%
sure that this is completely like the actual song.  This is pretty difficult to 
play, but after you get the left hand down, it's a little easier.

INTRO
e|-----2-----------2---------------------|
B|-2-------2---3-----------7---5---2---3-|
G|---2---2---2---4-------6---6---6---2---|
D|-----4---4-------4-------6---6---2---4-|
A|-------------2-------4-----------------|
E|-2-------------------------------------|

e|-----2-----------2-------------------2-|
B|-2-------2---3-------5---7---4-\-3-----|
G|---2---2---2---4-------6-----------4---|
D|-----4---4-------4-------6---6-\-----4-|
A|-------------2-------4-----------2-----|
E|-2-------------------------------------|

VERSE 1
e|-----2---------------------------------|    |---2---|
B|-2-------2---2---3---5---7---4---2---3-|    |-------|
G|---2---2---2---2-------6-----------2---| x2 |-2---2-|
D|---------------------6-------6---2-----|    |-------|
A|-------------2-------------------------|    |-------|
E|-2-------------------------------------|    |-------|
Now that we have expired, I should be honest
Marie, I was unfaithful to you and it kills me

(I'm not sure how to play this part, but here are the chords.
 You can just fingerpick whatever you want here, it's barely
                    audible, anyway.)

    Fm       E       Fm         E
And I have a son who I've never met
    D        E       D          E

And Guitar 2:

e|---------------------------------------------------------|
B|---------------------------------------------------------|
G|---------------------------------------------------------|
D|-4/7---2/4-2---2-4/7---2/4-2---------2/4-2---------------|
A|-----4---------------4-------2/4\2-0-------2/4\2-0-------|
E|---------------------------------------------------2-0---|

e|-----2---------------------------------|    |---2---|
B|-2-------2---2---3---5---7---4---2---3-|    |-------|
G|---2---2---2---2-------6-----------2---| x2 |-2---2-|
D|---------------------6-------6---2-----|    |-------|
A|-------------2-------------------------|    |-------|
E|-2-------------------------------------|    |-------|
Martin, you should be honest with me if you want to
I don't want all your devils to hold me and haunt me

(Again, this isn't the exact fingerpicked notes, it's just chords)

    Fm       E        Fm         E
And I have a love for you that's absurd
    D        E        D          E

Guitar 2 is the same:

e|---------------------------------------------------------|
B|---------------------------------------------------------|
G|---------------------------------------------------------|
D|-4/7---2/4-2---2-4/7---2/4-2---------2/4-2---------------|
A|-----4---------------4-------2/4\2-0-------2/4\2-0-------|
E|---------------------------------------------------2-0---|

VERSE 2
e|-----------------------------------------------|
B|-----------------------------------------------|
G|-----------------------------------------------|
D|-----------------------------------------------|
A|-2---2-4---2-2---2-4---2---2-4---2-2---2-4---2-|
E|-0---0-0---0-0---0-0---0---0-0---0-0---0-0---0-|
 |                                               | 
e|-----------------------------------------------|
B|-----------------------------------------------|
G|-----------------------------------------------|
D|-2---2-4---2-2---2-4---2---2-4---2-2---2-4---2-|
A|-0---0-0---0-0---0-0---0---0-0---0-0---0-0---0-|
E|-----------------------------------------------|
For eighty miles, oh, how we drove
I drove, you drove, we drove together
For eighty miles, puffing our smokes
I smoked, you smoked, we smoked together

e|-------------------0--------------|
B|-------------------0--------------|
G|-------------------1--------------|
D|---------7-------5-2------(7)-----|
A|-------7-------5---2--------------|
E|-0---5-------3-----0---5-------3~-|
But you loved me
Yes, I loved you

e|-----------------------------------------------|
B|-----------------------------------------------|
G|-----------------------------------------------|
D|-----------------------------------------------|
A|-2---2-4---2-2---2-4---2---2-4---2-2---2-4---2-|
E|-0---0-0---0-0---0-0---0---0-0---0-0---0-0---0-|
 |                                               | 
e|-----------------------------------------------|
B|-----------------------------------------------|
G|-----------------------------------------------|
D|-2---2-4---2-2---2-4---2---2-4---2-2---2-4---2-|
A|-0---0-0---0-0---0-0---0---0-0---0-0---0-0---0-|
E|-----------------------------------------------|
For seven days, oh how we drank
I drank, you drank, we drank together
At roadside pubs in the rain
I drank, you drank, let's drink together!

e|---0-----------------0--------------|
B|---0-----------------0--------------|
G|---1-----------------1--------------|
D|---2-------7-------5-2------(7)-----|
A|---2-----7-------5---2--------------|
E|-0---0-5-------3-----0---5-------3\-|
But you need me
Yes, I need you

ELECTRIC LEAD PART FOR VERSE 2
e|-------------0-0---4p2p0---0-----0-0-0-0-|
B|-----0-------0-0---------4---2---3-3-3-2-|  listen to the song, and you'll
G|-0h1-----0h1-----------------------------|  know when this comes in.  i'm
D|-----------------------------------------|  pretty sure it's all in e major.
A|-----------------------------------------|
E|-----------------------------------------|
^that isn't all of it, but I haven't figured out the rest yet. sorry!^

VERSE 3
e|-0-0-----0-0-0-----0-0-----------------------------------------------------|
B|-0-0-0---0-0-0-----0-0-----------------------------------------------------|
G|-0-0---0-0-0-0-----0-0-----------------------------------------------------|
D|-2-2-----2-2-2-----2-2-----------------------------------------------------|
A|-2-2-----2-2-2-----2-2-----------------------------------------------------|
E|-0-0-----0-0-0-3-2-0-0-3-2-------------------------------------------------|
               Mariel, someone's bleeding in the wall
               The house is beginning to crumble
               The baby is on fire
               Oh, dear! The zebras scaling the roof
               The mice are beginning to scatter
               Oh, Marie!

SOLO
(tremolo pick these notes, listen to the song to know tempo & length)
e|---------------------------------------------|
B|---------------------------------------------|
G|-------4-5-2-4-------4-7-5-9-7-9-5-7-4-------|
D|-2-4-5---------2-4-5-------------------4-5-2-|
A|---------------------------------------------|
E|---------------------------------------------|

VERSE 4
e|-----4-------2-------4-------2---|
B|-5-----5-2-----2-5-----5-2-----2-|
G|---6-------2-------6-------2-----|
D|---------------------------------|
A|-4---------------4---------------|
E|---------2---------------2-------|
You tied my shoes for me
You tied them tight

e|---------------------|
B|-2---------2---------|
G|-2-1-------2-1-------|
D|-2-2-------2-2-------|
A|-0-2-------0-2-------|
E|---0-3b4p0---0-3b4p0-|
But the roof blew off
And you fell out of love

e|-----4-------2-------4-------2---|
B|-5-----5-2-----2-5-----5-2-----2-|
G|---6-------2-------6-------2-----|
D|---------------------------------|
A|-4---------------4---------------|
E|---------2---------------2-------|
I wasted time on you
I wasted socks

e|---------------------|
B|-2---------2---------|
G|-2-1-------2-1-------|
D|-2-2-------2-2-------|
A|-0-2-------0-2-------|
E|---0-3b4p0---0-3b4p0-|
But the sun went down
And I fell out of love

Play an E major chord, then

CLIMAX
Fm                Bm         C#m     Bm
Mariel, would you love me if I was a liar?

repeat those chords a few times, then:

OUTRO
Fm E Fm E
D  E D  E

Guitar 2
e|---------------------------------------------------------|
B|---------------------------------------------------------|
G|---------------------------------------------------------|
D|-4/7---2/4-2---2-4/7---2/4-2---------2/4-2---------------|
A|-----4---------------4-------2/4\2-0-------2/4\2-0-------|
E|---------------------------------------------------2-0---|

END

:)

************************************

| /   slide up
| \   slide down
| h   hammer-on
| p   pull-off
| ~   vibrato
| x   Mute note
| 3b4 Bend 3 note to 4

************************************
Tap to rate this tab
# A B C D E F G H I J K L M N O P Q R S T U V W X Y Z