Song name
# A B C D E F G H I J K L M N O P Q R S T U V W X Y Z

Margot And The Nuclear So And Sos - German Motor Car tab

-------------------------------------------------------------------------------
			Margot & the Nuclear So and So's - German Motor Car
-------------------------------------------------------------------------------
Tabbed by: Austin Morgan

Intro

e|---------------------------------------|
B|---------------------------------------|
G|----4---4---4----4------0---0---0---0--|
D|--5---5---5----5-----/4---4---4---4----|
A|---------------------------------------|
E|---------------------------------------|
Well it sure felt nice getting ripped apart,
in that junked out German motor car,

Interlude

        G
I've got you
        Cm

Verse

e|-------0---------------0---------------0---------------0-------|
B|----3------3---3----3------3---3----3------3---3----3----3---3-|
G|-----4---------------4---------------4---------------4---------|
D|-5---------------4---------------2---------------0-------------|
A|---------------------------------------------------------------|
E|---------------------------------------------------------------|
Well, the robots cleaned at alarming speed,
All the bedroom sheets, and TV screens

on this part, do volume swells with these partial chords
(if you listen to the song, you know what i mean)

e|---------|
B|-3-3-3-3-|
G|-4-4-4-4-|
D|-5-4-2-0-|
A|---------|
E|---------|

       G
Without you
Cm
I haven't a thing to do;
G G/F# Em
      Not me

e|-7-10-|
B|-8-12-|
G|------|
D|------|
A|------|
E|------|

C								     G
This is how you ditch someone that drives you mad

(you could also play:)

e|--------------------------------------------|
B|-1---1-1---1-1----1---1---3-3-3-----3-----3-|
G|-0---0-0---0-0----0---0---0-0-0-----0-----0-|
D|-0h2-0-0h2-0-2----x-4p2-0-0-0-0-0h2-0-----0-|
A|-3---3-3---3-3----3---3---2-2-2-x---2-0h2-2-|
E|--------------------------3-3-3-----3-----3-|

Minor variations on all of that for a while, then:

   Am                                Em
So I will sit right down and stare at the wall,
        Am							Em
and pray that you are nothing like your photo at all,
Am							   Em
I will sit right down and stare at the wall, and
Am								Em
pray that you are nothing like your photo at all,
Am								Em
pray that you are nothing like your photo at all,
Am								Em
pray that you are nothing like your photo at all.

End on Am chord


and a little lead part during this section:

e|-8-8---8-8---10---12\7p0-|
B|-------------------------|
G|-------------------------|
D|-------------------------|
A|-------------------------|
E|-------------------------|

THE END
Tap to rate this tab
# A B C D E F G H I J K L M N O P Q R S T U V W X Y Z