Song name
# A B C D E F G H I J K L M N O P Q R S T U V W X Y Z

Margot And The Nuclear So And Sos - Skeleton Key tab

e --------------------------------------------------------------|
B --------------------------------------------------------------|
G -11---9-7--------7--------------11---9-7--------7-------------|
D -----------9--11-----11--7----------------9--11-----11--------|
A ----------------------------9---------------------------------|
E --------------------------------------------------------------|

e --------------------------------------------------------------|
B --------------------------------------------------------------|
G -11---9-7--------7--------------11---9-7----------------------|
D -----------9--11-----11--7----------------9--11-----1---------|
A ----------------------------9---------------------------------|
E --------------------------------------------------------------|

this isn't my first tab, just the first posted tab so rate comment, whatever you want 
cool.
Tap to rate this tab
# A B C D E F G H I J K L M N O P Q R S T U V W X Y Z