Margot And The Nuclear So And Sos - Talking In Code tab

TALKING IN CODE

|-------------------------------------------------------------|
|----1-----------1---1----3-1-0-----1----------1---1---3/5-3-1|
|------0------------------------------0-----------------------|
|--------0h2--2-------------------------0h2--2----------------|
|--3--------------3---3-----------0--------------0---0--------|
|-------------------------------------------------------------|

	                                                "...I've gotta go..."
|------------------------------------------------------------|
|----1-----------1---1----3-1-0-----1----------1--1----------|
|------0------------------------------0----------------------|
|--------0h2--2-------------------------0h2--2----2----------|
|--3--------------3---3-----------0--------------------------|
|------------------------------------------------------------|
                                                  x

This seemed like a hard song at first, but after getting used to the rhythm it really 
naturally, it's mostly chords (C, Am7) and hammer-ons. Good luck, if you have any 
please email jcasti010@gmail.com. Thanks.
Tap to rate this tab
 
# A B C D E F G H I J K L M N O P Q R S T U V W X Y Z