Margot And The Nuclear So And Sos - Will You Love Me Forever Acoustic tab

(/) Slide Up  (\) Slide Down  (h) Hammer On  (p) Pull Off  (b) Bend (r) Release (v) Vibrato

E-------------------------------------------|    x3
B----------0--------0-------------------0---|
G-------0-----0--0-----0--0---------0-------|
D-------0--------0--------0---0--0--0-------|
A-------x--------x--------x---------x-------|
E---3---3--------3--------2---------2-------|

                                  "If I could...
E------------------------------------------|
B----------0--------0--------0---------0---|
G-------0-----0--0-----0--0-----0--0-------|
D-------0--------0--------0--------0-------|
A-------x--------x--------x--------x-------|
E---3---3--------3--------3--------3-------|


1ST VERSE:

  "roll up my money" begins on beat 1 of the next measure.
E-----------------------------------------------------------------------------|
B-------0--------0--------0---------0---------0-------------------------------|
G----0-----0--0--------0-----0--0----------0-----0-----------0-----0--0-------|
D----0--------0--------0--------0----------0--------0---2/4-----4--------4--0-|
A----x--------x--------x--------x----------x--------x-------------------------|
E-3--3--------3-----2--2--------2-------0--0--------0-----------------------0-|

                   "Always travel light"
E-----------------------------------------------------------------------|
B-------0--------0--------0---------0---------0-------------------0-----|
G----0-----0--0--------0-----0--0----------0-----0----------------------|
D----0--------0--------0--------0----------0--------0---0------0------0-|
A----x--------x--------x--------x----------x--------x----------x------x-|
E-3--3--------3-----2--2--------2-------0--0--------0----------0------0-|



                     "Shut your eyes..."
                     "Don't blink twice..."
E|--------------1-------------------------|
B|--0--0h1--------------1---1---11--------|
G|-----------0----------0---0---00--------|
D|----------------------2---2---22--------|  x2
A|-----------------0----0---0---00--------|
E|----------------------------------------|




This is a pretty simple fingerpicking song. I am basing this tab on the version he
played for Baeble music. Google it if you want to hear the rhythm and random stylistic
additions he throws in to keep it interesting. The chorus is pretty much the same as the
first verse, going 3, 2, 0 on the low E. I may come back and add a few more things here and
there, but this is pretty much the whole song. Please email corrections or 
comments to jcasti010@gmail.com.
Tap to rate this tab
 
# A B C D E F G H I J K L M N O P Q R S T U V W X Y Z