Margot And The Nuclear So And Sos - Lunatic Lunatic Lunatic tab

CAPO 2ND FRET



|--------------------2-2p0-----------------------------|
|--------------------0-0--------------------------1----|
|------------0---------------------0h2----0------------|
|-------0h2-----------------------------2----0h2-------|
|--3-3------------------------0-0----------------------|
|---------------0--------------------------------------|


|-------------------------------3-3-3-3-|
|--1---------------1---1-1-1------------|
|--2---0h2--0---------------------------|
|--2----------0h2------2-2-2------------|
|--3-------------------3-3-3----2-2-2-2-|
|-------------------------------3-3-3-3-|




I'm lazy. Feel free to email me at jcasti010@gmail.com with additions to this, hopefully 
someone else can tab out the rest of this.
Tap to rate this tab
 
# A B C D E F G H I J K L M N O P Q R S T U V W X Y Z