Song name
# A B C D E F G H I J K L M N O P Q R S T U V W X Y Z

Margot And The Nuclear So And Sos - Prozac Rock tab

Margot & the Nuclear So & Sos
Prozac Rock
Standard Tuning
Submitted by Mike Birkey

e|----------2---2-3-3---|
B|--7-7---2-2---2-3-3---|
G|--7-7---2-2---2-4-3---|
D|--------2-4---4-5-5---|
A|--x-x-2---4-2-4-5-5---|
E|--5-7-3---2-3-2-3-3---|

e|--5-5-5----------|
B|--5-6-5----7-7---|
G|--5-5-6----7-7---|
D|--7-7-7x2-------|
A|--7-7-7----x-x---|
E|--5-5-5----5-7---|

e|--2---2-----2-----2---2-3-3-------|
B|--3---3---2-3-2---3-2-2-3-3-7-7---|
G|--4---4---2-2-2---2-2-2-4-3-7-7---|
D|--4---4---2---2-----2-4-5-5-------|
A|--2-2-2-2-------2-----4-5-5-x-x---|
Tap to rate this tab
# A B C D E F G H I J K L M N O P Q R S T U V W X Y Z