Song name
# A B C D E F G H I J K L M N O P Q R S T U V W X Y Z

Margot And The Nuclear So And Sos - Mary Saws Off Her Fingertips tab

Margot & the Nuclear So & Sos
Mary Saws Off Her Fingertips
Standard Tuning
Submitted by Mike Birkey

e|--------------------------0------------------2-------|
B|----1-1---1-1-------------0-1------------------0-----|
G|--1-2-2-1-2-2-----2-4-2-0-0-2--------------------0---|
D|--2-2-0-2-2-0-------------2-2----------2-2-2---------|
A|--2-----2-------2---------2---2-3-2----2-2-2---------|
E|--------------3-----------0---3-3-3-2b-0-3-0---------|

e|----------5-----5-------|
B|----------5-----5-------|
G|--5---5---5-----5-------|
D|--5-2-5-2-7---2-7---2---|
A|--3-2-3-2-7---2-7---2---|
E|----0---0-5-2-0-5-2-0---|
Tap to rate this tab
 
# A B C D E F G H I J K L M N O P Q R S T U V W X Y Z