Song name
# A B C D E F G H I J K L M N O P Q R S T U V W X Y Z

Margot And The Nuclear So And Sos - Books About Trains tab

Margot & the Nuclear So & Sos
Books About Trains
Standard Tuning
Submitted by Mike Birkey

e|-----------------------------|
B|------1-------1-0------------|
G|--------2-------------0-2b---|
D|----2-------2-------3--------|
A|--0---------------3----------|
E|----------3------------------|

e|------1------------------------------------|
B|--1-1-1---1-------------1-1----------------|
G|----0-2-1-2-------0-2b--2-2---------0-2b---|
D|--2-2-3-2-2-----3-------2-2-------3--------|
A|--3---3-2---2-3-------------2-2-3----------|
E|------1-0---3---------------3-3------------|

e|----------1-----|
B|--1-1-1-1-1-----|
G|--2-2-2-2-2-1---|
D|--2-2-2-2-3-2---|
A|--3---3---3-2---|
Tap to rate this tab
 
# A B C D E F G H I J K L M N O P Q R S T U V W X Y Z