Song name
# A B C D E F G H I J K L M N O P Q R S T U V W X Y Z

Margot And The Nuclear So And Sos - Barfight Revolution Power Violence tab

---------------------------------------------------------------------------
Barfight Revolution, Power Violence - Margot and the Nuclear So and So's
----------------------------------------------------------------------------
Tabbed by: ytomk
Email: Tom.White.Has.Email@gmail.comt

Note: This is just a way I like to play it, not exact, play around with it. I figured 
I'd throw it up here because I love the song and the band. Most of it comes from a mix of 
the bass line as well as the guitar I heard throughout.

Tuning: Standard

Intro/Background  Riff
e|--------------------------|
B|--------------------------|
G|---------------7--6-------|
D|-----------5--------------|
A|----5--h7-----------------|
E|----0---------------------|
      ^Let this E mother fucker ring out and sustain

Verse: They rhythm is whatever you feel like here, I just follow the bass'

    E           G    A
e|--------------------------------------------------------------------------|
B|--------------------------------------------------------------------------|
G|--------------------------------------------------------------------------|
D|--------------------------------------------------------------------------|
A|--2--2-------------7----------------------2--2--------------7-------------|
E|--2--2-------------7----------------------2--2--------------7-------------|
e|--0--0--------3----5(sustain)-------------0--0---------3----5(sustain)----|

   "She was a white owl, she had him like a high school drop out"

Chorus

e|-------------------------------------------------------------------------|
B|-------------------------------------------------------------------------|
G|---------------9----9-----9-9--------7---7------7-7----------------------|
D|---------------9----9-----9-9--------7---7------7-7---------7----7---7-7-|
A|---------------7----7-----7-7--------5---5------5-5---------7----7---7-7-|
E|------------------------------------------------------------5----5---5-5-|
    "So i can't turn back, honey, come on back, darling. come on, come on"

e|-----------------------|
B|-----------------------|
G|-----------------------|
D|---9-----7----5--5--7--|
A|---9-----7----5--5--7--|
E|---7-----5----3--3--5--|

    "Get back together"     REPEAT

I'm not really going to spell it out for you, that should be enough for you to figure 
out the gist of it enough to make some youtube cover and get a couple hundred views. I'm out.
Tap to rate this tab
# A B C D E F G H I J K L M N O P Q R S T U V W X Y Z