Guitaretab - guitar tabs
Song name
# A B C D E F G H I J K L M N O P Q R S T U V W X Y Z

Margot And The Nuclear So And Sos - Theres A Freakshow Downtown tab

There's a Freakshow Downtown.
Margot and the nuclear so & so's.

Standard Tuning.
My first tab. Easy song. Great band.
Enjoy!

PS:It's a little weird how i made it. The numbers and chords above the Tabs correspond 
to those above the lyrics
Intro:

|---------------------------------------------------------------|Repeat 2X
|-2-----------2---2---------------------------------------------|
|---------------------------------------------------------------|
|---------------------------------------------------------------|
|-0-0-0-0-0-0-0-0-----------------------------------------------|
|-----------------2-2-2-2-2-2-2-2-------------------------------|


Verse:
  [A]     H       1     2      H2
|-----------------------4---------------------------------------|
|-2---------------------5---------------------------------------|
|-2---------------7-----6---------------------------------------|
|-2-------0-------7-----6------0--------------------------------|
|-0-X8----0-X8----5-X8--4-X8---0--------------------------------|
|---------2--------------------2-X16----------------------------|
Palm mute these.
              [A]       H
There's a freakshow.. Downtown..
               [A]             H
We've been burning.. through crowds
             1   2           H2
We've got time... To get home.
[ Tab from: http://www.guitaretab.com/m/margot-and-the-nuclear-so-and-sos/305163.html ]
             [A]                 H
What's his shoe size? How's his hair?
           [A]         H
Is it curly? Is it fair?
             1..2            H
Take me home.....It's no joke.

Bridge to chorus:
Let's call this HH
           HH
|---------------------------------------------------------------|
|---------------------------------------------------------------|
|---------------------------------------------------------------|
|-----------2-4-2-----------------------------------------------|
|-----0-2-4-----------------------------------------------------|
|-2-4-----------------------------------------------------------|

Chorus:
                 1        2
He better not... Be there
      H         [A]
When I... Get home
           1                      2                 H HH
Or I'll break his nose.... And shatter his rib bones

REPEAT INTRO.

Verse:
              [A]                   H
Turn the light on. Take your face off.
            [A]                        H
Tell me exactly what the hell is goin' on
                 1  2
Let your dress down. Cut my lungs out
            H2
Make me happy.

CHORUS.
Repeat Chorus Tab Twice.Once for singing. Then one without singing.
Then...


Verse 1.
HH

Then Chorus again.






You can figure out the rest. It's pretty straight forward.



Thank you!











..
Related for Theres A Freakshow Downtown tab
Theres A Freakshow Downtown chords by Margot And The Nuclear So And Sos