Song name
# A B C D E F G H I J K L M N O P Q R S T U V W X Y Z

Margot And The Nuclear So And Sos - Christ chords

Highlighted       Show chord diagrams
Feel free to comment any corrections...

C        G                  Em
Jesus breaks your heart
  F             G                            C
Every night when he doesn't come.
C        G                 Em
All alone, wine bottles and chrome,
    F                     G                C
I got nothing in my bag for you.

e|---------------------------------|
B|---------------------------------|
G|---------------------------------|
D|---------------------------------|
A|-------3----2--------------------|
E|------------------0--------------|

Em      F              G
The fire from the sky,
Em                 F                   G
He wants to know your shoe size,
F                                 G
And all the weird shit in your brain
F                                   G
He's gonna wash it away with blood, but
C           G              Em
He breaks your heart
F                       G                      C
every night when he doesn't come.

C    G   Em    F   G   C

C          G           Em
Mary, steal the car
      F                     G         C
Drive it off with the carnival
C            G                  Em
I could pray, I could beg you to stay,
F                 G      C
But I won't.

e|---------------------------------|
B|---------------------------------|
G|---------------------------------|
D|---------------------------------|
A|-------3----2--------------------|
E|------------------0--------------|

Em             F              G
Tell him what you like,
Em              F                 G
He wants to know your dark side,
       F                           G
And all the weird shit in your brain,
         F                                    G
He's gonna wash it away with blood.
C           G               Em
He'll break your heart
F                G                   C
every night when he doesn't come.

C    G   Em    F   G   C

e|---------------------------------|
B|---------------------------------|
G|---------------------------------|
D|---------------------------------|
A|-------3----2--------------------|
E|------------------0--------------|

Em       F                   G
Tell me what you're like,
    Em                 F                   G
Come on and flash me those blue eyes,
          F                      G
And all the weird shit in your brain,
              F                               G
I'm gonna wash it away with blood, but

C           G               Em
You break my heart
F                G                   C
every night when we fall apart

On the C thats held at the end of each verse and starts off the next one i like to play 
this lick while there are no lyrics

e|---------------------------------|
B|---------0-----0-----0-----------|
G|------------------0----2---------|
D|-----------0h2-------------------|
A|-------3-------------------------|
E|---------------------------------|
Tap to rate this tab
 
# A B C D E F G H I J K L M N O P Q R S T U V W X Y Z