Song name
# A B C D E F G H I J K L M N O P Q R S T U V W X Y Z

Margot And The Nuclear So And Sos - Fisher Of Men tab

-------------------------------------------------------------------------------
               FISHER OF MEN - Margot & the Nuclear So and So's
-------------------------------------------------------------------------------
Tabbed by: A.J. Conner
E-mail: ajconner123@gmail.com

Tuning: Standard

A pretty easy song for the most part. If anybody can use this to try and 
figure out what the lead guitar's doing that would be awesome, because I can't
figure it out for the life of me. Here we go:

  Intro Riff
e|---------------------------------------------------------------------------|
B|---------------------------------------------------------------------------|
G|---------------------------------------------------------------------------|
D|---------------------------------------------------------------------------|
A|--2---2-4b5-4b5--2---2-----------------------------------------------------|
E|----------------------2b3-2b3--0-------------------------------------------|
  Play this twice, then rest for the verse.

  Main Riff
e|--------------------------0------------------------------------------------|
B|--------------------------0------------------------------------------------|
G|--------------------------0------------------------------------------------|
D|------5---------7-------3-3------------------------------------------------|
A|----5---------7---------3-3------------------------------------------------|
E|--3-----3-3/5-----5-5\1-1-1------------------------------------------------|
  Play twice.
  Rest briefly.
  
  Then play (we'll call it Interlude Riff, 'cause why the hell not?):
e|---------------------------------------------------------------------------|
B|---------------------------------------------------------------------------|
G|---------------------------------------------------------------------------|
D|--5-5-5-5-3-3-3-3----------------------------------------------------------|
A|--5-5-5-5-3-3-3-3----------------------------------------------------------|
E|--3-3-3-3-1-1-1-1----------------------------------------------------------|

Rest briefly again, then play the Interlude Riff once more, 
followed by the Main Riff four times.
Repeat the intro and verse/resting part, then play the Main Riff six times.

  Now the chorus:
e|-----------------------0---------------------------------------------------|
B|-----------------------0---------------------------------------------------|
G|-----------------------0---------------------------------------------------|
D|--5-5-5-5-7-7-7-7-3-3--2---------------------------------------------------|
A|--5-5-5-5-7-7-7-7-3-3--2---------------------------------------------------|
E|--3-3-3-3-5-5-5-5-1-1--0---------------------------------------------------|
  Play four times.
  
Play Intro Riff once, followed by the Interlude Riff once.
Then play the first half of the Intro Riff, stopping after the second 4b5.
Play the Interlude Riff one last time, followed by the Main Riff six times.
Play the chorus 4 times, ending the song on E minor.

  
Like I said, pretty straightforward.
Comment or email with any questions.


************************************

| /   slide up
| \   slide down
| b   Bend

************************************
Tap to rate this tab
# A B C D E F G H I J K L M N O P Q R S T U V W X Y Z