Song name
# A B C D E F G H I J K L M N O P Q R S T U V W X Y Z

Margot And The Nuclear So And Sos - Shannon tab

Margot & the Nuclear So & Sos
Shannon
Capo 4
Tabbed by Mike Birkey

e|--------------------------------------------------|
B|--------------------------------------------------|
G|-----2---2p0--------------------------------------|
D|--2--1---1---2--2--2------------------------------|
A|--2--2---2---2--2--2------------------------------|
E|--0--x---x---0--3--0------------------------------|

e|--------------------------------------------------|
B|--1--1p0----1--1p0--------------------------------|
G|--2--2------2--2---------2--2p0-------------------|
D|--2--2---2--2--2---2--2--1--1---2--2--2-----------|
A|---------2---------2--2--2--2---2--2--2-----------|
E|---------0---------0--0--x--x---0--3--0-----------|

e|--------------------------------------------------------|
B|--3--3--3--3--3-------1--1p0-------1--1p0---------------|
G|----------------------2--2---2-----2--2---2-------------|
D|-----x--------2-(x2)--2--2---2--2--2--2---2--2----------|
A|--2--3--x--x--2-----------------2------------2--x-x-x---|
E|--x-----3--2--0-----------------0------------0--2-3-2---|

e|-----------------------------------------------------------------------|
B|------------0-------3p0-----------------------0-------1----------------|
G|--------------0---------0-------0---0-----------0-------2-----2--------|
D|--2-------0-------0-------2-2/4---4---2-----2-----2-------2------------|
A|--2--x--------------------2-----------2--x--2-------0-------0---x-x-x--|
E|--0--2--3-------2---------0-----------0--2--0-------------------2-3-2--|
Tap to rate this tab
# A B C D E F G H I J K L M N O P Q R S T U V W X Y Z