Song name
# A B C D E F G H I J K L M N O P Q R S T U V W X Y Z

Margot And The Nuclear So And Sos - Books About Trains tab

Margot & the Nuclear So & Sos
Books About Trains
Tabbed by Mike Birkey
Standard Tuning

e|-----------------------------------------------------------------|
B|-----------------------------------------------------------------|
G|------------------------------------------------------2-----2-0--|
D|------5-------5-0-------------------------------------2-----2-0--|
A|--3-3---3-3-3-----------7-------7s3-----3-----3-------2-----2-0--|
E|------------------1s5-5---5-5-5-----1-1---1-1---1-0-0-0-0-0-0-x--|

e|---------------------------|
B|------1-------1-0----------|
G|--------2---2---------2b---|
D|----2----------------------|
A|--0-----------------3------|
E|----------3-------1--------|

e|----------1-----|
B|--1-1-1-1-1-----|
G|--2-2-2-2-2-1---|
D|--2-2-2-2-3-2---|
A|--3---3---3-2---|
E|----------1-0---|
Tap to rate this tab
 
# A B C D E F G H I J K L M N O P Q R S T U V W X Y Z