Song name
# A B C D E F G H I J K L M N O P Q R S T U V W X Y Z

Margot And The Nuclear So And Sos - Lazy tab

Margot and the Nuclear So and So's
Standard Tuning Capo 4
Tabbed by Mike Birkey


e|--2-0-2-0-2---------------2------------------|
B|--3-3-3-3-3-2-------------3-----2------------|
G|--2-2-2-2---2-------------4-----2------------|
D|------------2---2---------4-----2----x2------|
A|----------x---2-2-x-2-0h2-2-x-2--------------|
E|----------3---3-0-2-3-3-----2-3--------------|

e|--2------------------------2----------2---------|
B|--3-2----------------------3-----2----3-2-------|
G|--4-2----------------------4-----2----4-2-------|
D|--4-2----x4------2---------4-----2----4-2----x2-|
A|--2---2----------2-x-2-0h2-2-x-2------2---2-----|
E|------3------3-2-0-2-3-3-----2-3----------3-----|
Tap to rate this tab
 
# A B C D E F G H I J K L M N O P Q R S T U V W X Y Z