Song name
# A B C D E F G H I J K L M N O P Q R S T U V W X Y Z

Margot And The Nuclear So And Sos - Disease And Tobacco Free tab

There's already a tab w/ the base guitar pattern, but I also would like to add the 2nd 
guitar for those who want to know it.


Repeat this basically the whole song

e|--------------------------------------------------|
B|--------------------------------------------------|
G|--------------------------------------------------|
D|--5-5-5~--5---5-5-5-5-5~--5---5-5-----------------|
A|--5-5-5~--5---5-5-5-5-5~--5---5-5-----------------|
E|--3-3-5~--3---3-3-0-0-0~--0---0-0-----------------|

e|--------------------------------------------------|
B|--------------------------------------------------|
G|--------------------------------------------------|
D|----7-7-7--7--5--5-5-5--5--5----------------------|
A|----7-7-7--7--5--5-5-5--5--5----------------------|
E|----5-5-5--5--0--3-3-3--3--0----------------------|


The 2nd guitar plays this during intro and after the "disease and tobacco free" verse:

e|--------------------------------------------------|
B|--------8~--8-------7~--7-------------------------|
G|------7----------7--------------------------------|
D|----5----------5----------------------------------|
A|--------------------------------------------------|
E|--------------------------------------------------|
Tap to rate this tab
# A B C D E F G H I J K L M N O P Q R S T U V W X Y Z