Song name
# A B C D E F G H I J K L M N O P Q R S T U V W X Y Z

Margot And The Nuclear So And Sos - A Light On A Hill tab

A Light on a Hill

This is how Richard played it live...it is much more accurate than my last tab of this song...


Capo on 5th Fret

e----------------------------2-------------|
b-----3-----3----3-----3-----0-------------|
g-----------------------0-----0------------|
d--2--2--------0h2-----0-----0-------------| REPEAT Verse
a--2--2--------0h3-----0-----0-------------|
E--------2--2--------3----2----------------|


e----------------------------------|
b--1-----1----1---1--1-------------|
g--2-------------------------------|
d--2--2--2--0h2--------------------| CHORUS
a-----2--3----3---2----------------|
E-----------------3---2------------|
Tap to rate this tab
 
# A B C D E F G H I J K L M N O P Q R S T U V W X Y Z