Song name
# A B C D E F G H I J K L M N O P Q R S T U V W X Y Z

Margot And The Nuclear So And Sos - Quiet As A Mouse tab

intro-standard tuning

e---------------------------------------------------------|
b---------------------------------------------------------|
g-----7----7--7----7----7--7---7---7--7----7----7--7------|
d-5-5--5-5--5---------------------------------------------|
a---------------6-6--6-6-6--5-5-5-5-5--6-6--6-6--5--------|
E---------------------------------------------------------|

play that for intro and verse


chorus

e---------------------------|
b---------------------------|
g--8-----7--8---------------|
d--8--8--7--8---------------|
a--6--8--5--6---------------|
E--6---6--------------------|
Tap to rate this tab
# A B C D E F G H I J K L M N O P Q R S T U V W X Y Z