Song name
# A B C D E F G H I J K L M N O P Q R S T U V W X Y Z

Margot And The Nuclear So And Sos - Barfight Revolution Power Violence tab

Band : Margot And The Nuclear So And So's
Song : Dress Me Like A Clown
Album: The Dust Of Retreat
Tabbed By: Calum (afirock74@hotmail.com)
Normal Tuning

x   - Palm Mute
b   - Bend
b~  - Bend Up Then Down
h   - Hammer-On Directly After Note Before

Intro Guitar 1:
e|-------6-6--------6-6--------6-6---------------|
B|-------7-7--------7-7--------7-7---------------|
G|-------8-8--------8-8--------8-8------------6--|
D|----8--8-8-----8--8-8-----8--8-8------6--------|
A|-4/6---6-6--4/6---6-6--4/6---6-6-----6----8----|
E|-----------------------------------4----6------|


e|---------------------------------------------|
B|---------------------------------------------|
G|-----------6-8--------6-8---------6----------|
D|----------8----------8-----------8--4h6-6-4--|
A|---------------------------------------------|
E|---------------------------------------------|
Tap to rate this tab
# A B C D E F G H I J K L M N O P Q R S T U V W X Y Z