Song name
# A B C D E F G H I J K L M N O P Q R S T U V W X Y Z

Margot And The Nuclear So And Sos - Hip Hip Hooray tab

intro/chorus
E|----------------------------|
B|----------------------------|
G|----------------------------|
D|-----7-5--------7-5---------| x2
A|---------7-5-3------7-5-8---|
E|--5-------------------------|

verse
E|-----------------------------------|
B|-----------------------------------|
G|-----------------------------------|
D|-----------------------------------| X 10
A|-----2-3-2-3-5--7----2-3-2-3-5--7--|
E|--5--------------5-----------------|

chorus
E|----------------------------|
B|----------------------------|
G|----------------------------|
D|-----7-5--------7-5---------| x2
A|---------7-5-3------7-5-8---|
E|--5-------------------------|

(give it to me, give it to me, give it to me etc)
E|-----------------------------------|
B|-----------------------------------|
G|-----------------------------------|
D|-----------------------------------| x4
A|-----2-3-2-3-5--7----2-3-2-3-5--7--|
E|--5--------------5-----------------|

verse 2 (same as verse 1)
E|-----------------------------------|
B|-----------------------------------|
G|-----------------------------------|
D|-----------------------------------| X 10
A|-----2-3-2-3-5--7----2-3-2-3-5--7--|
E|--5--------------5-----------------|

chorus
E|----------------------------|
B|----------------------------|
G|----------------------------|
D|-----7-5--------7-5---------| x4
A|---------7-5-3------7-5-8---|
E|--5-------------------------|

then it's all the same stuff.. there ya go
Tap to rate this tab
 
# A B C D E F G H I J K L M N O P Q R S T U V W X Y Z