Song name
# A B C D E F G H I J K L M N O P Q R S T U V W X Y Z

Margot And The Nuclear So And Sos - Vampires In Blue Dresses tab

**************CAPO 2ND FRET******************


VERSE
e-------3---3---3---------3----3---3--------------|
b-------3---3---3---------3----3---3--------------|
g-----------2------------------2------------------|
d---------------2------------------2--------------|
a-------2-------2---------2--------2--------------|
e--2h3--3---2------0--2---3---2-------0--2--3-----|

CHORUS
e----------------------2--------------------|
b---1------------------3--------------------|
g---2------------------4--------------------|
d---2---2--------------4---2----------------|
a-0-----2-----------2--2---2----------------|
e-------0--0--2--3---------0--0--2--3-------|

OUTRO (strum fast)
e--------2-------|
b--1-----3-------|
g--2-----4-------|
d--2--2--4--2----|
a-----2--2--2----|
e-----0-----0----| then strum the Em with the drum.
Tap to rate this tab
 
# A B C D E F G H I J K L M N O P Q R S T U V W X Y Z