Song name
# A B C D E F G H I J K L M N O P Q R S T U V W X Y Z

Margot And The Nuclear So And Sos - Dress Me Like A Clown tab

Tuning:standard CAPO 2nd fret

INTRO
e|----------------------------------------------------------|
B|------5-5-------------------------------------------------|
G|--4-/-6-6-------------------------------------------------|
D|--4-/-6-6---x3------4-----6-----repeat 2 times------------|
A|--2-/-4-4----------4-4---6-2------------------------------|
E|------------------2-----4---------------------------------|

VERSE
e|-----4----------------------------------------------------|
B|--5--4----------------------------------------------------|
G|--6--4---2--2---------------------------------------------|
D|--6--6---2--2---------------------------------------------|
A|--4--6---0--0---------------------------------------------|
E|-----4----------------------------------------------------|

CHORUS
e|--------------------------------------------------------|
B|--------------------------------------------------------|
G|--2--4--------------------------------4-/--5------------|
D|--2--4---reapeat 4x ending on >> -----4-/--5------------|
A|--0--2--------------------------------2-/--3------------|
E|--------------------------------------------------------|

back to intro and so on, listen to song for strum pattern and what not.....

************For those of you without capos************

move all of these chords up 2 frets and the only difference in playing is that on the
chord of the verse and the first chord of the chorus (they are the same chord) you will
all of the strings on the 2nd fret and then play the D and G strings on the 4th fret. 
way of playing it, but on the end you wont be able to do the hammer ons and pull offs,
i didnt tab b/c its easy enough to figure out.....


| / slide up
| \ slide down
| h hammer-on
| p pull-off
| ~ vibrato
| + harmonic
| x Mute note
Tap to rate this tab
# A B C D E F G H I J K L M N O P Q R S T U V W X Y Z