Song name
# A B C D E F G H I J K L M N O P Q R S T U V W X Y Z

Margot And The Nuclear So And Sos - Cold Kind And Lemon Eyes tab

Margot and the Nuclear So and So's
Cold, Kind, and Lemon Eyes

Song is in Standrad Tuning....


INTRO 2X (this is the verse as well, just dont do the hammer ons and pull offs)

e----------------------------------------------------|
b------------------------------------------3--3------|
g---------------0-h-2------------2-p-0---------------|
d--2-----0-h-2---------2--0-h-2---------2--2--4------|
a--2--2--3-------------2--3-------------2--3--5------|
e--0--3----------------0----------------0------------|

CHORUS (dont play the last G chord the second time through)

e----------------------------------|
b------------------3--0------------|
g----------------------------------|
d--2-----2--0-h-2--------2---------| X2
a--2--2--2--3------------2---2-----|
e--0--3--0---------------0---3-----|

e-------7----------------|
b-------7--7-----1--3----|
g-------7-----7----------|
d-------9--------2-------| X2
a-------9--------3--2----|
e--2-/--7-----------3----|

the C chord starts when he sings You should hold your booze...keep playing th Am until then..

e-----------------------------------------------------------|
b--1--1--1--3--3--3--3----3--3----5--5---6--6----3--4-------|
g--2-------------------0-------0-------0------0-------------|
d--2--2--0--2-----2-------2-------4------5-------2--x-------|
a-----3--1--3--2--3-------3-------5------6-------3--3-------|
e--------------3------------------x------x----------x-------|

then keep playing the end of the previous part...
(play the first chord for two counts and the second and third for one count each)

e--------------|
b--6--3--4-----|
g--------------|
d--5--3--x-----|
a--6--2--3-----|
e--x--x--x-----|

These parts are then just repeated throughout the song
Tap to rate this tab
 
# A B C D E F G H I J K L M N O P Q R S T U V W X Y Z