Song name
# A B C D E F G H I J K L M N O P Q R S T U V W X Y Z

Margot And The Nuclear So And Sos - As Beautiful As Ever tab

Help us improve GuitareTab! Take a short survey!
---------------------------------------------------------------------------------|
 CHORDS USED---------------------------------------------------------------------|
--Am--F---F*--Dm--G--C---C*--C---------------------------------------------------|
e---------------1----------------------------------------------------------------|
b--1----1--1----3-------1---1---1------------------------------------------------|
g--2----2-------2----------------------------------------------------------------|
d--2----3---------------2---2----------------------------------------------------|
a-------3------------2--3---3---2------------------------------------------------|
E----------2---------3------3----------------------------------------------------|

C---------F*-------G----C
i spent my nights in chicago
C-----F*-----------G------------C
burnin brain cells on the sixteenth floor
Dm-------------------C---C**
we camped out on the roof baby
Dm---------------------C----C**
until your neighbors they went crazy
---------C*----------C**-------C
then you touched me casually at first
C*--------------C**------C
conversations of circular re-birth

C--------F*----------G-----C
I spent a month in the north east
C------F*-----------G-----C
writing letters on the motel sheets
Dm-----------------C-----C**
those pills induced a dream baby
Dm-------------------C----C**
and when i woke i had gone crazy
----------C*---------------C**-----------C
and when you had found me everything had changed
C*---------------------------C**-----C
three sheets white and honey

Dm----------------------C---------C**
it was in brooklyn where i witnessed heaven
Dm----------------C-------C**
an outdoor fire and dormant wind
-----------C*
but ive got miles baby
C**---------------C
so you can take me home
-------C*--------------C**-------------C
so lets call your mother before we hit the road


lyrics may be iffy.................
Related for As Beautiful As Ever tab