Song name
# A B C D E F G H I J K L M N O P Q R S T U V W X Y Z

Mari Yaguchi - Seishun Boku tab

Tabbed by Man Out Of Time.  Message with corrections.  Former Morning Musume, tiny 
debut single:
http://www.up-front-agency.co.jp/artist/yaguchi-mari/

Intro:
----|---------------|
----|---------------|
-6v-|-6-6-6---------|
-6v-|-6-6-6---------|
-4v-|-4-4-4-1-1-2-3-|
----|---------------|  x3

Verse 1:
C#	Bbm	F#	G#
F#	G#	Fm	Bbm
F#	G#
rpt

Bridge:
F#	C# 	x2
F#	G#	Fm	Bbm
F#	G#

Riff:
---------------|
-------15-14v--|
---------------|
-13-15---------|
---------------|
---------------|

Chorus:
C#	G#	Bbm	Fm
F#	C#	G#
Bbm	G#	F#	C#
F#	C#	D#m-G#  C#
F#	C#	F#	G#
C#

Solo:
--------------|-------------|--------------------------------|
--------------|-------------|-9h11-9-------------------------|
--------------|------8v-10v-|--------11p10-11/13\11-10-------|
-/8v-10v-11v--|-11v---------|--------------------------13-11-|
--------------|-------------|--------------------------------|
--------------|-------------|--------------------------------|

--------------------14-13-10--16-|
-----------14-13-10--------------|
-10h11h13------------------------|
---------------------------------|
---------------------------------|
---------------------------------|

play over:
F#	G#	Bbm
Bbm	Cm7	C#
F#	G#	C#7	Bbm
F#		G#

Verse 2
Bridge 2
Riff
Chorus 2

Verse 3
C#	Bbm	F#	C#	F#	G#
C#-G#-Bbm-C#
F#-Bbm-F#-G# G#

Chorus 3:
C#	G#	Bbm	Fm
F#	C#	F#	G#
Bbm	G#	F#	C#
F#	C#	D#m-G#  C#

Solo 2:
---------------------------------|-------------------------------------------|
-----------9--13--14-------------|-------------------------------------------|
----8-10v------------------------|----------15-13----------------------------|
-11------------------15-15-13-15-|-15-13----------15-16-15--13----13---------|
---------------------------------|-------16--------------------16------------|
---------------------------------|-------------------------------------------|


---------------------------------------|---------------------------------|---|
-------------14---13v---14-13----------|---------------------------------|---|
------------------------------15-13----|------------15b--13v--10-11v-13v-|---|
-15b-r15----------------------------15-|-15-13---------------------------|---|
---------16----------------------------|-------16------------------------|---|
---------------------------------------|---------------------------------|---|


------------------------------------------------------------------13v--------|
-----11------14v----------------------------------------------13v------------|
-11v---11----------11---10tr11---10h11r10----10------------------------------|
-------------------------------------------13----13-11v----------------------|
-----------------------------------------------------------------------------|
-----------------------------------------------------------------------------|
                                                      ^noise
Chorus 4 - Play over Solo:
C#	G#	Bbm	Fm
F#	C#	F#	G#
Bbm	G#	F#	C#
F#	C#
F#	G#
F#	C#
Tap to rate this tab
# A B C D E F G H I J K L M N O P Q R S T U V W X Y Z