Song name
# A B C D E F G H I J K L M N O P Q R S T U V W X Y Z

Maria Mena - Hes Hurting Me tab

Its only the intro, the rest of the song will come later..

! Drop D ! 

D |--0------------|--3------------|--2------------|--1------------|
A |---------------|---------------|---------------|---------------|
D |----0---0------|----0---0------|----0---0------|----1---1------|
G |---------------|---------------|---------------|---------------|
B |------3-----3--|------3-----3--|------3-----3--|------3-----3--|
E |---------------|---------------|---------------|---------------|

 |--0-------------|--3------------|--2------------|---------------|
 |----------------|---------------|---------------|--3------------|
 |----0---0-------|----0---0------|----0---0------|---------------|
 |----------------|---------------|---------------|---------------|
 |------3-----3---|------3-----3--|------3--------|---------------|
 |----------------|---------------|---------------|---------------|


I believe the rest of the song goes about the same,
The chorus is Dm, C, Bb 
But i'm still working on that...



Hope you like it
Tap to rate this tab
 
# A B C D E F G H I J K L M N O P Q R S T U V W X Y Z