Song name
# A B C D E F G H I J K L M N O P Q R S T U V W X Y Z

Mariachi Vargas - Jarabe Tapatio tab

         E                                                 H
E|---------------------------------------------------------------|
H|-12-11-12------------------------------------------------------|
G|----------13-12-13---------------------------------11-13-14-11-|
D|-------------------14-13-14---------------11-13-14-------------|
A|----------------------------14---11-12-14----------------------|
E|---------------------------------------------------------------|
                                                     E
E|------------------------------------------------------|
H|-10-9-10-------------------12-12-12-14-12-------------|
G|---------11-10-11-8-7-8-------------------14-13-11----|
D|------------------------9--------------------------14-|
A|------------------------------------------------------|
E|------------------------------------------------------|
    F#                  H     F#                H
E|-------------------------------------------------|
H|-------------------------------------------------|
G|-11-11----------------------11-11----------------|
D|-------11-11-11-13-14-14-13-------11-11-13-14-13-|
A|-------------------------------------------------|
E|-------------------------------------------------|

   F#                   H                    F#       H
E|-------------------------------------------------------|
H|-------------------------------------------------------|
G|-11-11----------------------11-11-11-13-11-------------|
D|-------11-11-11-13-14-14-13----------------14-13-11----|
A|----------------------------------------------------14-|
E|-------------------------------------------------------|


          E                                                 H
E|---------------------------------------------------------------|
H|-12-11-12------------------------------------------------------|
G|----------13-12-13---------------------------------11-13-14-11-|
D|-------------------14-13-14---------------11-13-14-------------|
A|----------------------------14---11-12-14----------------------|
E|---------------------------------------------------------------|
                                                     E
E|------------------------------------------------------|
H|-10-9-10-------------------12-12-12-14-12-------------|
G|---------11-10-11-8-7-8-------------------14-13-11----|
D|------------------------9--------------------------14-|
A|------------------------------------------------------|
E|------------------------------------------------------|
Tap to rate this tab
# A B C D E F G H I J K L M N O P Q R S T U V W X Y Z