Song name
# A B C D E F G H I J K L M N O P Q R S T U V W X Y Z

Mariachi - Jarabe Tapatio tab

-----------------------------------------------------------------------------
                             Jarabe Tapatío
-----------------------------------------------------------------------------
Tabbed by: Ruben
E-mail: rubylnieves@gmail.com

Tuning: standard

e|--------------------------------------------------------------------------|
B|-12-11-12-----------------------------------------------------------------|
G|---------13-12-13------------------------------11-13-14-11----------------|
D|-----------------14-13-14-------------11-13-14----------------------------|
A|-------------------------14--11-12-14-------------------------------------|
E|--------------------------------------------------------------------------|


e|--------------------------------------------------------------------------|
B|-9-10-9-----------------12-12-12-14-12------------------------------------|
G|-------11-10-11-8-7-8------------------14-13-11---------------------------|
D|----------------------9------------------------14-------------------------|
A|--------------------------------------------------------------------------|
E|--------------------------------------------------------------------------|

e|--------------------------------------------------------------------------|
B|--------------------------------------------------------------------------|
G|-11-11-11--------------------11-11-11--------13-14-14-13------------------|
D|---------11-11-11-13-14-14-13--------11-11-11-----------------------------|
A|--------------------------------------------------------------------------|
E|--------------------------------------------------------------------------|

e|--------------------------------------------------------------------------|
B|--------------------------------------------------------------------------|
G|-11-11-11--------------------11-11-11-13----------------------------------|
D|---------11-11-11-13-14-14-13-----------14-13-11--------------------------|
A|------------------------------------------------14------------------------|
E|--------------------------------------------------------------------------|
Tap to rate this tab
 
# A B C D E F G H I J K L M N O P Q R S T U V W X Y Z