Song name
# A B C D E F G H I J K L M N O P Q R S T U V W X Y Z

Mariah Carey - Its Like That tab

Standard e tuning. This is the main theme to this song. Enjoy

-----16--------------------12--11---|
---------16---14---14-14------------|
------------------------------------|
------------------------------------|
------------------------------------|
------------------------------------|
  
-----16--------------------12-----|
---------16---14---14-14----------|
----------------------------------|
----------------------------------|
----------------------------------|
----------------------------------|
Tap to rate this tab
# A B C D E F G H I J K L M N O P Q R S T U V W X Y Z