Song name
# A B C D E F G H I J K L M N O P Q R S T U V W X Y Z

Mariah Carey - Heartbreaker tab

Help us improve GuitareTab! Take a short survey!
Mariah Carey-HeartBreaker
Tabsmail-cifrastabs@zipmail.com.br
    Mariah Carey-HeartBreaker


                                      Am                   Dm7        
                                    
e|0-0-0-0-0-0-----3-3-3-3-3-3-3-|0-0-0-0-0-0-----0-0-0-0---1-1-1-|
B|1-1-1-1-1-1-----3-3-3-3-3-3-3-|0-0-0-0-1-1-----1-1-1-1---1-1-1-|
G|------------------------------|----------------------------2-0-|
A|------------------------------|--------------------------------|
D|------------------------------|--------------------------------| 
E|------------------------------|--------------------------------|

      C             G/B                Am                   
|0-0-0-0-0-0-----3-3-3-3-3-3-3-|0-0-0-0-0-0-----0-0-0-0---1-1-1-|
|1-1-1-1-1-1-----3-3-3-3-3-3-3-|0-0-0-0-1-1-----1-1-1-1---1-1-1-|
|------------------------------|----------------------------2-0-|
|------------------------------|--------------------------------|
|3-3-3-3-3-3-----0-0-0-0-0-0-0-|--------------------------------| 
|------------------------------|--------------------------------|
Related for Heartbreaker tab