Song name
# A B C D E F G H I J K L M N O P Q R S T U V W X Y Z

Mariah Carey - Honey tab

Artist: Mariah Carey
Album: Butterfly
Song: Honey (So So Def Radio Mix)

Standard Tuning

This Riff starts when Mariah starts to sing and played repeatedly throughout
the song

e----------------------------------------
B----------------------------------------
G--9-9-9-9-9-9-9-9-7-9-11--13-13-13-13---
D----------------------------------------
A--7-7-7-7-7-7-7-7-5-7-9---11-11-11-11---
E----------------------------------------

e----------------------------------------
B----------------------------------------
G--6-6-6-6-6-6-6-6---9-11--13-13-13-13---
D------------------9---------------------
A--4-4-4-4-4-4-4-4---7-9---11-11-11-11---
E------------------7---------------------

Transcribed by Joel 

Key:
/ -slide up
\ -slide down
h - hammer on
p -pull off
x -muted string
p.m. -palm mute
b -bend
Tap to rate this tab
 
# A B C D E F G H I J K L M N O P Q R S T U V W X Y Z