Song name
# A B C D E F G H I J K L M N O P Q R S T U V W X Y Z

Mariah Carey - Someday tab

Mariah Carey
Someday
Tuning: Standard
Transcribed by Soch H.

Guitar Solo: (2:49)
|---------------------------------------------------------------------------|
|-17b19=--17-14-------------------------------------------------------------|
|----------------16b18~~---13--11b13rp9-[11]--9--------------------x--x-----|
|-----------------------------------------------11-11p9----9~\-----x--x-----|
|-------------------------------------------------------11------------------|
|---------------------------------------------------------------------------|

|----------------------------|
|----9--9----------9-9-9-----|
|----9--9----------9-9-9-----|
|-11------11-9-11--------11~-|
|----------------------------|
|----------------------------|

|------------------------------------------------9---|
|----------------------------------------------9-----|
|--------------------------------------9-11b13-------|
|-9-------------------------------9h11---------------|
|---11--9s7-7h9-7h9-9s11-9~--9h11--------------------|
|----------------------------------------------------|

|-12b14=\------------------------9---14b16==-------|
|------------------------------9-------------------|
|---------------------9-11b13----------------------|
|------------------11------------------------------|
|--------------------------------------------------|
|---------9\---------------------------------------|

Legend:
b:   bend
~:   vibrato
r:   release
p:   pull-off
[]:  pinch harmonic
s:   slide
Tap to rate this tab
 
# A B C D E F G H I J K L M N O P Q R S T U V W X Y Z