Mariah Carey - Angels Cry tab

Verse: (Mariah)

e--------------------------------------2-3-3--2-3-3--2-2-3-2-0---|
b--2-3-3---2-3-3--3/5-2-3-3--2-3-3-3/5---------------------------|
g----------------------------------------------------------------| 2x
d----------------------------------------------------------------|
a----------------------------------------------------------------|
e----------------------------------------------------------------|

e-------------------------|
b----2-2-3-3-3--2-2-3-----|
g--2------------------2---| 3x
d-------------------------|
a-------------------------|
e-------------------------|

e------2-3-2-0---2--|
b--3-5---------3----|
g-------------------|
d-------------------|
a-------------------|
e-------------------|

Refrain:

e--2-3-5-2--2-3-5-2------2-----2--3-2-0---2-|
b--------------------3-5---3-5----------3---|
g-------------------------------------------|
d-------------------------------------------|
a-------------------------------------------|
e-------------------------------------------|

e--2-3-5-2--2-3-5-2------2-----2--3-2-0-------|
b--------------------3-5---3-5----------3-5-3-|
g---------------------------------------------|
d---------------------------------------------|
a---------------------------------------------|
e---------------------------------------------|

Chorus:

e-------------2-0-----|
b--3-5-5--3-5-----3-3-|
g---------------------| 2x
d---------------------|
a---------------------|
e---------------------|

e-------------2-0---2-0---3-2-0--------|
b--3-5-5--3-5-----3-------------3-5-3--|
g--------------------------------------|
d--------------------------------------|
a--------------------------------------|
e--------------------------------------|

VerseII: (ne-yo)

e--------------------|
b--2-3-3--2-3-3--3-5-|
g--------------------| 2x
d--------------------|
a--------------------|
e--------------------|

e-------------------------------------------------2--|
b--------3-5-3----3---3-----3-3-3-3-3-3-3-3-3-3-3----|
g--2-2-4--------4---4---2----------------------------|
d----------------------------------------------------|
a----------------------------------------------------|
e----------------------------------------------------|

e--5-5-5-2-0-0-0-2-----5-5-5-2-0-0-0-2-3-2-0------|
b------------------3------------------------------|
g-------------------------------------------------|
d-------------------------------------------------|
a-------------------------------------------------|
e-------------------------------------------------|

e----------------------------2-0---|
b--3-3-5-3-----3-----3---3-5-----3-|
g----------2-4---2-4---------------|
d----------------------------------|
a----------------------------------|
e----------------------------------|

e--5-2-7-5-2-0---|
b--------------3-|
g----------------| 3x
d----------------|
a----------------|
e----------------|

e--2-3-2-0---2--|
b----------3----|
g---------------|
d---------------|
a---------------|
e---------------|

(repeat refrain)
(repeat chorus)
Tap to rate this tab
 
# A B C D E F G H I J K L M N O P Q R S T U V W X Y Z