Song name
# A B C D E F G H I J K L M N O P Q R S T U V W X Y Z

Marianas Trench - Push tab

---------------------------------------------------------------------------
			  Push - Marianas Trench
---------------------------------------------------------------------------
Tabbed by: kelly lien
Email: hockey.shorty@gmail.com

Tuning: standard

intro/verse (4x) (clean)
e|-5-5-5-5-5-5-5--5-5-5-5-5-5-5--5-5-5-5-5-5-5--5-5-5-5-5-5-5-------------|
B|-3-3-3-3-2-2-0--3-3-3-3-2-2-0--3-3-3-3-2-2-0--3-3-3-3-2-2-0-------------|
G|-0-0-0-0-0-0-0--0-0-0-0-0-0-0--4-4-4-4-4-4-4--4-4-4-4-4-4-4-------------|
D|-0-0-0-0-0-0-0--0-0-0-0-0-0-0--0-0-0-0-0-0-0--0-0-0-0-0-0-0-------------|
A|------------------------------------------------------------------------|
E|------------------------------------------------------------------------|

Chorus (distortion) - figure out the strumming
e|------------------------------------------------------------------------|
B|------------------------------------------------------------------------|
G|-------------7-7-7-6-6-6---6-6-6-7-7-9---4-4-4-6-6-7--------------------|
D|-5-5-5-5-5---7-7-7-7-7-7---6-6-6-7-7-9---4-4-4-6-6-7--------------------|
A|-5-5-5-5-5---5-5-5-5-5-5---4-4-4-5-5-7---2-2-2-4-4-5--------------------|
E|-3-3-3-3-3--------------------------------------------------------------|

e|------------------------------------------------------------------------|
B|------------------------------------------------------------------------|
G|-------------7-7-7-6-6-6---6-6-6-7-7-9---4-4-4-6-6-7--------------------|
D|-5-5-5-5-5---7-7-7-7-7-7---6-6-6-7-7-9---4-4-4-6-6-7--------------------|
A|-5-5-5-5-5---5-5-5-5-5-5---4-4-4-5-5-7---2-2-2-4-4-5--------------------|
E|-3-3-3-3-3--------------------------------------------------------------|

e|------------------------------------------------------------------------|
B|------------------------------------------------------------------------|
G|-------------4-4-4-4-4---4-4-6-6-7-7---------------4-4-4-4-4------------|
D|-5-5-5-5-5---4-4-4-4-4---4-4-6-6-7-7---5-5-5-5-5---4-4-4-4-4-----2------|
A|-5-5-5-5-5---2-2-2-2-2---2-2-4-4-5-5---5-5-5-5-5---2-2-2-2-2-----2------|
E|-3-3-3-3-3-----------------------------3-3-3-3-3-----------------0------|

break
e|--5-5-5-5-5-5-5---5-5-5-5-5-5-5-----------------------------------------|
B|--3-3-3-3-2-2-0---3-3-3-3-2-2-0-----------------------------------------|
G|--0-0-0-0-0-0-0---0-0-0-0-0-0-0-----------------------------------------|
D|--0-0-0-0-0-0-0---0-0-0-0-0-0-0-----------------------------------------|
A|------------------------------------------------------------------------|
E|------------------------------------------------------------------------|

verse (3x)
e|-5-5-5-5-5-5-5--5-5-5-5-5-5-5--5-5-5-5-5-5-5--5-5-5-5-5-5-5-------------|
B|-3-3-3-3-2-2-0--3-3-3-3-2-2-0--3-3-3-3-2-2-0--3-3-3-3-2-2-0-------------|
G|-0-0-0-0-0-0-0--0-0-0-0-0-0-0--4-4-4-4-4-4-4--4-4-4-4-4-4-4-------------|
D|-0-0-0-0-0-0-0--0-0-0-0-0-0-0--0-0-0-0-0-0-0--0-0-0-0-0-0-0-------------|
A|------------------------------------------------------------------------|
E|------------------------------------------------------------------------|

chorus
e|------------------------------------------------------------------------|
B|------------------------------------------------------------------------|
G|-------------7-7-7-6-6-6---6-6-6-7-7-9---4-4-4-6-6-7--------------------|
D|-5-5-5-5-5---7-7-7-7-7-7---6-6-6-7-7-9---4-4-4-6-6-7--------------------|
A|-5-5-5-5-5---5-5-5-5-5-5---4-4-4-5-5-7---2-2-2-4-4-5--------------------|
E|-3-3-3-3-3--------------------------------------------------------------|

e|------------------------------------------------------------------------|
B|------------------------------------------------------------------------|
G|-------------7-7-7-6-6-6---6-6-6-7-7-9---4-4-4-6-6-7--------------------|
D|-5-5-5-5-5---7-7-7-7-7-7---6-6-6-7-7-9---4-4-4-6-6-7--------------------|
A|-5-5-5-5-5---5-5-5-5-5-5---4-4-4-5-5-7---2-2-2-4-4-5--------------------|
E|-3-3-3-3-3--------------------------------------------------------------|

e|------------------------------------------------------------------------|
B|------------------------------------------------------------------------|
G|-------------4-4-4-4-4---4-4-6-6-7-7---------------4-4-4-4-4------------|
D|-5-5-5-5-5---4-4-4-4-4---4-4-6-6-7-7---5-5-5-5-5---4-4-4-4-4-----2------|
A|-5-5-5-5-5---2-2-2-2-2---2-2-4-4-5-5---5-5-5-5-5---2-2-2-2-2-----2------|
E|-3-3-3-3-3-----------------------------3-3-3-3-3-----------------0------|

bridge
e|------------------------------------------------------------------------|
B|------------------------------------------------------------------------|
G|-7-2-------7-2---4---4~---7-2------------7-2-4--------------------------|
D|-7-2-2-5---7-2-2-4---4~---7-2-2-5---5~---7-2-2-2---2~-------------------|
A|-5-0-2-5---5-0-2-2---2~---5-0-2-5---5~---5-0-2-2---2~-------------------|
E|-----0-3-------0--------------0-3---3~---------0---0~-------------------|

verse (4x)
e|-5-5-5-5-5-5-5--5-5-5-5-5-5-5--5-5-5-5-5-5-5--5-5-5-5-5-5-5-------------|
B|-3-3-3-3-2-2-0--3-3-3-3-2-2-0--3-3-3-3-2-2-0--3-3-3-3-2-2-0-------------|
G|-0-0-0-0-0-0-0--0-0-0-0-0-0-0--4-4-4-4-4-4-4--4-4-4-4-4-4-4-------------|
D|-0-0-0-0-0-0-0--0-0-0-0-0-0-0--0-0-0-0-0-0-0--0-0-0-0-0-0-0-------------|
A|------------------------------------------------------------------------|
E|------------------------------------------------------------------------|

chorus
e|------------------------------------------------------------------------|
B|------------------------------------------------------------------------|
G|-------------4-4-4-4-4---4-4-6-6-7-7---------------4-4-4-4-4------------|
D|-5-5-5-5-5---4-4-4-4-4---4-4-6-6-7-7---5-5-5-5-5---4-4-4-4-4-----2------|
A|-5-5-5-5-5---2-2-2-2-2---2-2-4-4-5-5---5-5-5-5-5---2-2-2-2-2-----2------|
E|-3-3-3-3-3-----------------------------3-3-3-3-3-----------------0------|

e|------------------------------------------------------------------------|
B|------------------------------------------------------------------------|
G|-------------4-4-4-4-4---4-4-6-6-7-7---------------4-4-4-4-4------------|
D|-5-5-5-5-5---4-4-4-4-4---4-4-6-6-7-7---5-5-5-5-5---4-4-4-4-4-----2------|
A|-5-5-5-5-5---2-2-2-2-2---2-2-4-4-5-5---5-5-5-5-5---2-2-2-2-2-----2------|
E|-3-3-3-3-3-----------------------------3-3-3-3-3-----------------0------|

e|-------------------------------------------------|
B|-------------------------------------------------|
G|---7-2------------7-2-4--------------------------|
D|---7-2-2-5---5~---7-2-2-2---2~-------------------|
A|---5-0-2-5---5~---5-0-2-2---2~-------------------|
E|-------0-3---3~---------0---0~-------------------|


| /  slide up
| \  slide down
| h  hammer-on
| p  pull-off
| ~  vibrato
| +  harmonic
| x  Mute note
===============================================================================
Tap to rate this tab
# A B C D E F G H I J K L M N O P Q R S T U V W X Y Z