Song name
# A B C D E F G H I J K L M N O P Q R S T U V W X Y Z

Marianas Trench - Beside You tab

-------------------------------------------------------------------------------
			     Beside You - Marianas Trench
-------------------------------------------------------------------------------
Tabbed by: Tobias Rezende
Email:

Tuning: EADGBA

Verse 1

e|------------------------------------------------|
B|------------------------------------------------| 
G|-----9-----------8-----------9-----------9------|
D|---9---9---9---9---9---9---9---9---9---9---9---9|
A|-7-------7---6-------6---0-------0---0-------0--|
E|------------------------------------------------|


e|------------------------------------------------|
B|------------------------------------------------| 
G|-----9-----------8-----------9-----9-----9------|
D|---9---9---9---9---9---9---9---9-----9-----9----|
A|-7-------7---6-------6---0-------0-----0-----0--|
E|------------------------------------------------|

e|----------------------------------------------0000-0000-0000|
B|----------------7777-7777-7777-5555-5555-5555-0000-0000-0000|
G|-9999-9999-9999-8888-8888-8888-6666-6666-6666-2222-2222-2222|
D|-9999-9999-9999-9999-9999-9999-6666-6666-6666-2222-2222-2222|
A|-7777-7777-7777-6666-6666-6666-4444-4444-4444-0000-0000-0000|
E|------------------------------------------------------------|

It's this all music
In the different part i just hear piano, so i think is just this
have fun :}

| /  slide up
| \  slide down
| h  hammer-on
| p  pull-off
| ~  vibrato
| +  harmonic
| x  Mute note
===============================================================================
Tap to rate this tab
# A B C D E F G H I J K L M N O P Q R S T U V W X Y Z