Guitaretab - guitar tabs
Song name
# A B C D E F G H I J K L M N O P Q R S T U V W X Y Z

Marianas Trench - Cross My Heart tab

Band: Marianas Trench
Song: Cross My Heart
Album: Masterpiece Theatre

Guitar 1 - Rhythm (Josh Ramsay)
Guitar 2 - Lead (Matt Webb)

Intro
Guitar 1
E|--------------------------|
B|--------------------------|
G|7-------------7-----------|
D|7--444-4-4555-7-444-------|
A|5-2444-2-4555-5-444-2~-4~-|
E|--0224---2333---222---2--2|

Guitar 2
E|-0--0-------0--0--------0--0-----|
B|--7p---------7p----------7p------|
G|7------77/9-------77/9-------77/9|
D|---------------------------------|
A|---------------------------------|
E|---------------------------------|

Verse
E|-----------------------------------------------|
B|-----------------------------------------------|
G|-----------------------------------------------|
D|77----------4/55-4/55-4-77----------4/55-4/55-4|
A|55-77-99-55-4/55-4/55-4-55-77-99-55-4/55-4/55-4|
E|---55-77-33-2/33-2/33-2----55-77-33-2/33-2/33-2|

Pre-Chorus (palm-muted)
E|-------------|
B|-------------|
G|-------------|
D|-------------|
A|222222-444444|
E|000000-222222|

Chorus 1
Both Guitars
E|-----------|-----------|-----------|------|
B|-----------|-----------|-----------|------|
G|-----------|-----------|-----------|------|
D|77---------|77---------|77---------|2222-7|
A|55-77-99-55|55-77-99-55|55-77-99-55|2222-7|
E|---55-77-33|---55-77-33|---55-77-33|0000-5|

Guitar 1
E|--------------------------|--------------------------|
B|--------------------------|--------------------------|
G|7-------------7-----------|7-------------7-----------|
D|7--444-4-4555-7-444-------|7--444-4-4555-7-444-------|
A|5-2444-2-4555-5-444-2~-4~-|5-2444-2-4555-5-444-2~-4~-|
E|--0224---2333---222---2--2|--0224---2333---222---2--2|

Guitar 2

E|--0--0-----0--0-------0---0------|0--0-------0--0---------0--0------|
B|---7p-------7p----------7p-------|-7p---------7p-----------7p-------|
G|7------77/9-------77/9-------77/9|------77/9-------7-9/11-------77/9|
D|---------------------------------|----------------------------------|
A|---------------------------------|----------------------------------|
E|---------------------------------|----------------------------------|



[ Tab from: http://www.guitaretab.com/m/marianas-trench/180313.html ]
Verse 2
E|---------------------------------------------------------|
B|---------------------------------------------------------|
G|---------------------------77----------------------------|
D|77----------4/55-4/54-4-77-77-------------------4/55-4/55|
A|55-77-99-54-4/55-4/54-4-55-77-778899-99------55-4/55-4/55|
E|---55-77-33-2/33-2/33-2----55-556677-77-14/3-33-2/33-2/33|

Pre-Chorus (palm-muted)
E|-------------|
B|-------------|
G|-------------|
D|-------------|
A|222222-444444|
E|000000-222222|

Chorus 2
E|-----------|-----------|-----------|------|
B|-----------|-----------|-----------|------|
G|-----------|-----------|-----------|------|
D|77---------|77---------|77---------|2222-7|
A|55-77-99-55|55-77-99-55|55-77-99-55|2222-7|
E|---55-77-33|---55-77-33|---55-77-33|0000-5|

Outro
E|-------------------|----|-----------------------|
B|-------------------|----|-----------------------|
G|-------------------|----|-----------------------|
D|7777777777777777/--|777/|77---------------------|
A|5555555555555555/--|555/|55-999999-555555-777777|
E|-------------------|----|---777777-333333-555555|

Last Chorus
E|-----------|-----------|-----------|---------|
B|-----------|-----------|-----------|---------|
G|-----------|-----------|-----------|---------|
D|77---------|77---------|77---------|2222-7777|
A|55-77-99-55|55-77-99-55|55-77-99-55|2222-7777|
E|---55-77-33|---55-77-33|---55-77-33|0000-5555|

E|-------------------------------------------------------|
B|-------------------------------------------------------|
G|-------------------------------------------------------|
D|----------------------------77-777-77-777--------------|
A|99-999-99-999-55-555-55-555-55-555-55-555-77-777-77-777|
E|77-777-77-777-33-333-33-333---------------55-555-55-555|

E|----------------------------------------------------|
B|----------------------------------------------------|
G|----------------------------------------------------|
D|----------------------------77-777-77-777-----------|
A|99-999-99-999-55-555-55-555-55-555-55-555-7777777777|
E|77-777-77-777-33-333-33-333---------------5555555555|

Related for Cross My Heart tab
×
Cross My Heart